Song name
# A B C D E F G H I J K L M N O P Q R S T U V W X Y Z

Bob Marley - Roots Rock Raggae tab

alright, this is the right way to play it.

verse

e--7---7---7---9---|
b--7---8---7---10--|
g--7---9---7---11--|  basically it's those chords over and over, two times
d--9---7---9---9---|  each.
a------------------|
e------------------|

"Play i the R&B" & "we're bubbling in the top 100"

e-------------9/7--|
b-------------9/7--|
g-------------9/7--|
d-------7/9--------|
a--7/9-------------|
e------------------|

that's it!  it's a great song...everybody use this tab to jam on it!


peace & jamming,
-grace
Tap to rate this tab
# A B C D E F G H I J K L M N O P Q R S T U V W X Y Z