Guitaretab - guitar tabs
Song name
# A B C D E F G H I J K L M N O P Q R S T U V W X Y Z

Bob Mould - Hanging Tree tab

 All it
is is an open Dsus2 chord with hammer-ons to the G and then the A string...

HANGING TREE
[ Tab from: http://www.guitaretab.com/b/bob-mould/181128.html ]
----|-0-----0---0-0-----0-----0---0-0-0---0-----0---0--------0---------0--|
----|-3-----3---3-3-----3-3---3---3-3-3---3-----3---3-3------3-----3---3--|
--0-|-2---2-2---2-0^2---2-2---2---2-2-0^2-2-2---2---2-0----0--------------|
--0-|-0---0-------0-------0---------0-0-----0-------0-0--3-----2----------|
--3-|---------------------0------------------------------------------3----|
----|---------------------------------------------------------------------|


--0-----0---0-0-------0---0-0---0-|-0-0----0-0-----0---------0--|
--3-----3---3-3-----3-3---3-3---3-|-3-3----3-3-----3-----3---3--|
--2---2-2---2-2-2---2-2---2-2---2-|-2-2----2-0---0--------------|
------0---------0---0-----0---0---|---0-0------3-----2----------|
------0---------0^3-----------3---|-----0^3----------------3----|
----------------------------------|-----------------------------|
Related for Hanging Tree tab
Advertisement will be closed in 10 seconds