Song name
# A B C D E F G H I J K L M N O P Q R S T U V W X Y Z

Bob Mould - Could You Be The One tab

COULD YOU BE THE ONE? (Bob Mould)

Thanks to Hank Tomczak for the Fm.

Chords:

G   320033  F  133211   C X32010   Bb X1333X   Am X02210  

Fm  122111  D  XX0232

C5  X3555X  B5 X2444X  A5 5776XX   G5 3554XX 

Em7 022033  Fsus2+D 13X033    D+A X0023X    
 
Intro:
 
G 			F       C
 
C                     Bb
Well could you be the one they talk about?
Am       G      F            G 
Hiding inside behind another door,
C               Bb 
well is it only happiness you want ?
     Am         G        F         G
does wanting or feeling matter any more.
Fm                   C
It doesn't mean that much to me sometimes
Fm                 C      G 
I don't mean that much to you
      Am                       D
and I don't even know what I'm hiding for and I

   Em7         Fsus2+D     D+A      G 
e:------3-3---------3-3-------------3----3-3---| Play
B:------3-3---------3-3------3-3----3----3-3---| three
G:------0-0---------0-0----2-2-2----0----0-0---| times
D:-2----2-2----------------0-0-0----0----0-0---| ()=Ghost Notes
A:-2-----------3----3-3----0--------2----------| ie. Don't stress.
E:(0)---------(1)-------------------3----------|
   don't even  know what I'm crying for,
I don't even   know what I'm hiding for,
I'm hiding in - si    -    i  -    ide,

   Em7         Fsus2+D     D+A      G    Fsus2
e:------3-3---------3-3-------------3----1-1---|
B:------3-3---------3-3------3-3----3----1-1---|
G:------0-0---------0-0----2-2-2----0----0-0---| 
D:-2----2-2----------------0-0-0----0----3-3---| 
A:-2-----------3----3-3----0--------2----3-3---| 
E:-0-----------1--------------------3----1-1---|
I'm crying in - si   -     i  -     ide

C		             Bb
Well could you be the one they talk about
Am        G	      F    	     G
life is a game that only you can make
C		       Bb
well maybe I'm about to throw it out
     Am       G           F             G
I've given it all that's all that I can take
 
Fm                   C
It doesn't mean that much to me sometimes
Fm                 C      G 
I don't mean that much to you
      Am                       D
and I don't even know what I'm hiding for 
      Em7        Fsus2+D       D+A    G 
and I don't even know what I'm crying for
   Em7         Fsus2+D     D+A                                             
I don't even know          Well, 
     C5    B5   A5         G5 C5
Could you  be the one 
C5    B5   A5              G5 C5
could you  be the one 

C5    B5   A5              G5     C5
could you  be the one      that's hanging around
      Em7        Fsus2+D       D+A    G  
and I don't even know what I'm crying for,
  Em7        Fsus2+D       D+A    G 
I don't even know what I'm hiding for,
    Em7      Fsus2+D  D+A  G 
I'm hiding insi   -   i  - ide,
    Em7      Fsus2+D  D+A  G  Fsus2   
I'm crying insi   -   i  - ide

 
Solo:
 
  C                 Bb           Am        G  F          G
|---------------------------------------------------------------------|
|-----------11-p-10--------------10-10-10-----13-13-p-10--------------|
|-6-/-9--12---------12-p-10-h-12-----------12------------12-p-10-h-12-|
|---------------------------------------------------------------------|
|---------------------------------------------------------------------|
|---------------------------------------------------------------------|
 
  C                 Bb           Am        G  F          G
|---------------------------------------------------------------------|
|-----------11-p-10--------------10-10-10-----13-13-p-10--------------|
|-6-/-9--12---------12-p-10-h-12-----------12------------12-p-10-h-12-|
|---------------------------------------------------------------------|
|---------------------------------------------------------------------|
|---------------------------------------------------------------------|
 	

   Fm                   C         Fm
|-----------------------15--------------------------------------------|
|-------------13--13-15----15-15------------13--13--15----------------|
|--12-/-13--13--13----------------12-/-13-13--13----------------------|
|---------------------------------------------------------------------|
|---------------------------------------------------------------------|
|---------------------------------------------------------------------|
 
   G        Am             D                G
|--15-13-12---------------------------------3-------------------------|
|-----------15-13-12------------------------3-------------------------|
|--------------------14-12-12-h-14----------0-------------------------|
|-----------------------------------14/17---0-------------------------|
|-------------------------------------------2-------------------------|
|-------------------------------------------3-------------------------|
 
      Em7        Fsus2+D       D+A    G  
and I don't even know what I'm crying for,
  Em7        Fsus2+D       D+A    G 
I don't even know what I'm hiding for,
Em7        Fsus2+D     D+A       G 
don't even know,       Could you be the only 
Em7    Fsus2+D D+A
broken hearted one?

     C5    B5   A5         G5 C5
Well could you  be the one 
C5    B5   A5              G5 C5
could you  be the one 


C5    B5   A5              G5     C5             
could you  be the one      that's hanging  all around
Em7        Fsus2+D     D+A       G 
I don't even know,
     Em7        Fsus2+D    D+A 
well don't even know

     C5    B5   A5         G5 C5
Well could you  be the one 
C5    B5   A5              G5 C5
could you  be the one 
C5    B5   A5              G5 C5
could you  be the one
C5    B5   A5           A5 G5 C5(hold).
could you  be the one

Tap to rate this tab
# A B C D E F G H I J K L M N O P Q R S T U V W X Y Z