Song name
# A B C D E F G H I J K L M N O P Q R S T U V W X Y Z

Bob Mould - Next Time That You Leave tab

Highlighted       Show chord diagrams
Bob Mould's Hubcap Album.


VERSE 1:
	    Am7	    G/C         F#/D

	The next time that you leave
e-----------0---------0---------0---------|
b-----------1---------1---------1---------|
G-----------0---------0---------2---------|
D-----------3---------0---------0---------|
A-----------0---------2---------0---------|
E-----------X---------3---------2---------|


	Fsus4  Fsus(?)	Fsus4	Fsus(?)
	I'll ...
e---------0---------0---------0---------0---------|
b---------1---------0---------1---------0---------|
G---------2---------2---------2---------2---------|
D---------3---------3---------3---------3---------|
A---------3---------3---------3---------3---------|
E---------1---------1---------3---------3---------|


music continues underneath:
Then ...

The next time that you leave 
I'm ...
I ...


	Fsus4		E(hold)
	Remind me to forget
e-------0-0-0-0---------0---------|
b-------1-1-1-1---------0---------|
G-------2-2-2-2---------1---------|
D-------3-3-3-3---------2---------|
A-------3-3-3-3---------2---------|
E-------1-1-1-1---------0---------|


CHORUS:

C			Am		    D7
You are not ....

Fsus4		Fsus(?)		Fsus4		Fsus(?)
Different ....

C			Am
You are just a bastard

Fsus4		Fsus(?)		Fsus4		Fsus(?)
Ooh  		oh		ooh		oh

Tap to rate this tab
# A B C D E F G H I J K L M N O P Q R S T U V W X Y Z