Song name
# A B C D E F G H I J K L M N O P Q R S T U V W X Y Z

Bob Mould - One Good Reason tab

ONE GOOD REASON


In the meantime, tune to DADEAD and slap a 
capo on the second fret.  

open tuning: DADEAD



The intro figure is played clean, as follows, with slight alterations 
each time.

|----------(2)-------------------------------------------|
|T----------2------------------------------------4^2-----|
|A----------0--------------------------2^0-----------0---|
|B-----------------------------------------2-------------|
|--------2-------2-/4-5---X-4---0------------------------|
|---0^2----------2-/4-5---X-4-----0----------------------|


A fuzzy guitar enters to play the verse, as such:

   In the forest-			All the trees are turnin'
|----------2----------------5---4---0------------------------------|
|T---------2----------------5---4---0------------------------------|
|A---------0----------------0---0---2------------------------------|
|B---------2----------------5---4---0------------------------------|
|----------2----------------5---4---0------------------------------|
|----------2----------------5---4---0------------------------------|

   Black-			     h p p p   h
|----2-----------------5---4---0-----------------------------------|
|T---2-----------------5---4---5-----4^5^4^2^0-----2---------2-----|
|A---0-----------------0---0-------------------0^2---------2-------|
|B---2-----------------5---4-------------------------2---------2---|
|----2-----------------5---4---------------------------------------|
|----2-----------------5---4---------------------------------------|
Tap to rate this tab
# A B C D E F G H I J K L M N O P Q R S T U V W X Y Z