Song name
# A B C D E F G H I J K L M N O P Q R S T U V W X Y Z

Bob Mould - Poison Years tab

main riff



|-----------0-------------------------|
|T------------0-----------0-----------|
|A--------------4---4-------4-----4---|
|B--------2---------------------4-----|
|-----------------------------2-------|
|---3-2-0---------3---2---------------|

During the verse, a similar figure is played, albeit with more droning...

|-------------------------------------|
|T--------0---------------0-------0---|
|A----------4-------4-------4---4-----|
|B------------------------------------|
|-----------------------------2-------|
|---3-2-0---------3---2---------------|
Tap to rate this tab
 
# A B C D E F G H I J K L M N O P Q R S T U V W X Y Z