Song name
# A B C D E F G H I J K L M N O P Q R S T U V W X Y Z

Bob Mould - Skintrade tab

KINTRADE (Bob Mould)

Intro (play four times):

   E                 C#m7                B                 Asus2              
e:-----0---0-0---0---0---0-0---0---0---|-0---0---0-0---0---0---0-0---0---0---|
B:-----0---0-0---0---0---0-0---0---0---|-0---0---0-0---0---0---0-0---0---0---|
G:-----4---4-4---4---4---4-4---4---4---|-4---4---4-4---4---4---4-4---4---4---|
D:-2---2---2-2---2---2---2-2---2---2---|-4---4---4-4---4---2---2-2---2---2---|
A:-2---2---2-2---2---4---4-4---4---4---|-2---2---2-2---2---0---0-0---0---0---|
E:-0-----------------------------------|-------------------------------------|

Verse 1:

   E   (hold)        C#m7(hold)          B                 Asus2(hold)
e:-------------------0-----------------|-0---0-----0-------0-----------------|
B:-0---0-------------0-----------------|-0-0---0-0---------0-----------------|
G:-4---4-------------4b5r4b5r4---------|-4-4-----4---------4b5r4b5r4---------|
D:-2---2-------------2-----------------|-4-----------------2-----------------|
A:-2---2-------------------------------|-2-----------------0-----------------|
E:-------------------------------------|-------------------------------------|
   Floodlight,    Arizona   /         The fire trucks rush in
   Double wide       double bed /        Specks of ceiling paint fall off the 
   tin And they're   standing by /       Brow begins to    moisten as you 
   take Another      hotshot to stiff you up / The room is spinning now
                                                

Pre-chorus:

   Asus2     C#m7        B
e:-0-0-0-0---0-0-0-0---|-0-0-0-0---0-0-0-0----|
B:-0-0-0-0---0-0-0-0---|-0-0-0-0---0-0-0-0----|
G:-4b5r4b5---4b5r4b5---|-4b5r4b5---4b5r4b5----|
D:-2---------2---------|-4--------------------|
A:-0---------4---------|-2--------------------|
E:---------------------| ---------------------|
   That's    it,         man

   E/G#      Asus2       E         F#7sus4
e:-0-0-0-0---0-0-0-0---|-0-0-0-0---0-0-0-0----|
B:-0-0-0-0---0-0-0-0---|-0-0-0-0---0-0-0-0----|
G:-4b5r4b5---4b5r4b5---|-4b5r4b5---4b5r4b5----|
D:-----------2---------|-2--------------------|
A:-2---------0---------|-2---------4----------|
E:-4-------------------|-0---------2----------|
   Inhi   -  bitions   fall by the wayside

   Asus2     C#m7        B
e:-0-0-0-0---0-0-0-0---|-0-0-0-0---0-0-0-0----|
B:-0-0-0-0---0-0-0-0---|-0-0-0-0---0-0-0-0----|
G:-4b5r4b5---4b5r4b5---|-4b5r4b5---4b5r4b5----|
D:-2---------2---------|-4--------------------|
A:-0---------4---------|-2--------------------|
E:---------------------| ---------------------|
   Ha   -    ppy         man 

   E/G#      Asus2       E         F#7sus4
e:-0-0-0-0---0-0-0-0---|-0-0-0-0---0-0-0-0----|
B:-0-0-0-0---0-0-0-0---|-0-0-0-0---0-0-0-0----|
G:-4b5r4b5---4b5r4b5---|-4b5r4b5---4b5r4b5----|
D:-----------2---------|-2--------------------|
A:-2---------0---------|-2---------4----------|
E:-4-------------------|-0---------2----------|
   You don't care what's happen  - ing

   Asus2     C#m7        B
e:-0-0-0-0---0-0-0-0---|-0-0-0-0---0-0-0-0----|
B:-0-0-0-0---0-0-0-0---|-0-0-0-0---0-0-0-0----|
G:-4b5r4b5---4b5r4b5---|-4b5r4b5---4b5r4b5----|
D:-2---------2---------|-4--------------------|
A:-0---------4---------|-2--------------------|
E:---------------------| ---------------------|
   To        you         now,      it's all 

   E/G#      Asus2       E         F#7sus4
e:-0-0-0-0---0-0-0-0---|-0-0-0-0---0-0-0-0----|
B:-0-0-0-0---0-0-0-0---|-0-0-0-0---0-0-0-0----|
G:-4b5r4b5---4b5r4b5---|-4b5r4b5---4b5r4b5----|
D:-----------2---------|-2--------------------|
A:-2---------0---------|-2---------4----------|
E:-4-------------------|-0---------2----------|
   one big   blur of    lights and action

   Asus2     C#m7        B
e:-0-0-0-0---0-0-0-0---|-0-0-0-0---0-0-0-0----|
B:-0-0-0-0---0-0-0-0---|-0-0-0-0---0-0-0-0----|
G:-4b5r4b5---4b5r4b5---|-4b5r4b5---4b5r4b5----|
D:-2---------2---------|-4--------------------|
A:-0---------4---------|-2--------------------|
E:---------------------| ---------------------|
   La   -    ter         on,       you find 

   E/G#      Asus2       E         
e:-0-0-0-0---0-0-0-0---|-0-0-0-0---0-0-0-0----|
B:-0-0-0-0---0-0-0-0---|-0-0-0-0---0-0-0-0----|
G:-4b5r4b5---4b5r4b5---|-4b5r4b5---4b5r4b5----|
D:-----------2---------|-2---------2----------|
A:-2---------0---------|-2---------2----------|
E:-4-------------------|-0---------0----------|
out You've been had, you've been tricked, you're exposed, you've got it

Chorus:

   E                 C#m7                B                 Asus2              
e:-----0---0-0---0---0---0-0---0---0---|-0---0---0-0---0---0---0-0---0---0---|
B:-----0---0-0---0---0---0-0---0---0---|-0---0---0-0---0---0---0-0---0---0---|
G:-----4b5r4b5r4b5r4-4b5r4b5r4b5r4b5r4-|-4---4---4-4---4---4b5r4b5r4b5r4b5r4-|
D:-2---2---2-2---2---2---2-2---2---2---|-4---4---4-4---4---2---2-2---2---2---|
A:-2---2---2-2---2---4---4-4---4---4---|-2---2---2-2---2---0---0-0---0---0---|
E:-0-----------------------------------|-------------------------------------|
   Made in the       skin trade with your heavy head and   heart, you fall apart
  And the          hole in your arm won't heal the pain you're feeling, You've been
  Made in the        skin trade, darling / Every stitch of you has been revealed
   And there's       nothing left to     conceal


Guitar Solo (not tabbed) over Pre-Chorus:

   Asus2     C#m7        B
e:-0-0-0-0---0-0-0-0---|-0-0-0-0---0-0-0-0----|
B:-0-0-0-0---0-0-0-0---|-0-0-0-0---0-0-0-0----|
G:-4b5r4b5---4b5r4b5---|-4b5r4b5---4b5r4b5----|
D:-2---------2---------|-4--------------------|
A:-0---------4---------|-2--------------------|
E:---------------------| ---------------------|
                                                   These four bars
   E/G#      Asus2       E         F#7sus4         played three times
e:-0-0-0-0---0-0-0-0---|-0-0-0-0---0-0-0-0----|
B:-0-0-0-0---0-0-0-0---|-0-0-0-0---0-0-0-0----|
G:-4b5r4b5---4b5r4b5---|-4b5r4b5---4b5r4b5----|
D:-----------2---------|-2--------------------|
A:-2---------0---------|-2---------4----------|
E:-4-------------------|-0---------2----------|



   Asus2     C#m7        B
e:-0-0-0-0---0-0-0-0---|-0-0-0-0---0-0-0-0----|
B:-0-0-0-0---0-0-0-0---|-0-0-0-0---0-0-0-0----|
G:-4b5r4b5---4b5r4b5---|-4b5r4b5---4b5r4b5----|
D:-2---------2---------|-4--------------------|
A:-0---------4---------|-2--------------------|
E:---------------------| ---------------------|

   E/G#      Asus2       E(hold)         
e:-0-0-0-0---0-0-0-0---|-0--------------------|
B:-0-0-0-0---0-0-0-0---|-0--------------------|
G:-4b5r4b5---4b5r4b5---|-4--------------------|
D:-----------2---------|-2--------------------|
A:-2---------0---------|-2--------------------|
E:-4-------------------|-0--------------------|


Verse 2:

   E   (hold)        C#m7(hold)          B                 Asus2(hold)
e:-------------------0-----------------|-0---0-----0-------0-----------------|
B:-0---0-------------0-----------------|-0-0---0-0---------0-----------------|
G:-4---4-------------4b5r4b5r4---------|-4-4-----4---------4b5r4b5r4---------|
D:-2---2-------------2-----------------|-4-----------------2-----------------|
A:-2---2-------------------------------|-2-----------------0-----------------|
E:-------------------------------------|-------------------------------------|
   Hemispheres so    high and mighty /   Velveteen and     chalk delight
   You've become the new obsession of    everyone that     you've caressed
But you can't tell who recognizes        you / Can't       tell who knows your face
   Can't tell      anything, can't tell anyone what you've done, you've got it

 
Chorus:

   E                 C#m7                B                 Asus2              
e:-----0---0-0---0---0---0-0---0---0---|-0---0---0-0---0---0---0-0---0---0---|
B:-----0---0-0---0---0---0-0---0---0---|-0---0---0-0---0---0---0-0---0---0---|
G:-----4b5r4b5r4b5r4-4b5r4b5r4b5r4b5r4-|-4---4---4-4---4---4b5r4b5r4b5r4b5r4-|
D:-2---2---2-2---2---2---2-2---2---2---|-4---4---4-4---4---2---2-2---2---2---|
A:-2---2---2-2---2---4---4-4---4---4---|-2---2---2-2---2---0---0-0---0---0---|
E:-0-----------------------------------|-------------------------------------|
   Made in the       skin trade with your heavy head and   heart, you fall apart
  And the          hole in your arm won't heal the pain you're feeling, You've been
  Made in the        skin trade, darling / Every stitch of you has been revealed
   And there's       nothing left to     conceal


   E                 C#m7                B                 Asus2              
e:-----0---0-0---0---0---0-0---0---0---|-0---0---0-0---0---0---0-0---0---0---|
B:-----0---0-0---0---0---0-0---0---0---|-0---0---0-0---0---0---0-0---0---0---|
G:-----4b5r4b5r4b5r4-4b5r4b5r4b5r4b5r4-|-4---4---4-4---4---4b5r4b5r4b5r4b5r4-|
D:-2---2---2-2---2---2---2-2---2---2---|-4---4---4-4---4---2---2-2---2---2---|
A:-2---2---2-2---2---4---4-4---4---4---|-2---2---2-2---2---0---0-0---0---0---|
E:-0-----------------------------------|-------------------------------------|
   Made in the       skin trade darling
   Made in the       skin trade darling
   Made in the       skin trade darling
   Made in the       skin trade darling...
Tap to rate this tab
# A B C D E F G H I J K L M N O P Q R S T U V W X Y Z