Song name
# A B C D E F G H I J K L M N O P Q R S T U V W X Y Z

Bob Mould - Brasilia Crossed With Trenton tab

-------------------------------------------------------------------------------
BRASILIA CROSSED WITH TRENTON  - Bob Mould
-------------------------------------------------------------------------------
Tabbed by: Joe1039
Email:juanfer_gd@hotmail.com

Tuning:Standard 
Capo 2nd Fret  All Notes are related to capo

Okay,so let's begin with Workbook's easiest song, but now it's one of Bob's best.

Intro (x2)
I'm not that good tabbing rhythm so make sure you listen to the song. Song's in 6/8

     Dsus2
e|---000-000-000-000-000-000-000-000-----------------------------------------|
B|---333-333-333-333-333-333-333-333-----------------------------------------|
G|-0h222p000h222p000h222p000h222p000-----------------------------------------|
D|---000-----000-----000-----000---------------------------------------------|
A|---------------------------------------------------------------------------|
E|---------------------------------------------------------------------------|

 Verse (on the verses there's a second guitar picking the chords)

       Dsus2              G             Csus2  G Dsus2
e|------000-000-000-000---3-33-333-333-----3---3---000-000-000-000---|-000-000-000-000---|
B|------333-333-333-333---3-33-333-333-----3---3---333-333-333-333---|-333-333-333-333---|
G|------222p000h222p000---0-00-000-000-----0---0---222p000h222p000---|-222p000h222p000---|
D|------000-----000-------0-00-000-000-------------000-----000-------|-000-----000-------|
A|------------------------2-22-222-222-----3---2---------------------|-------------------|
E|------------------------3-33-333-333---------3---------------------|-------------------|
  Well I walk through the day, through the o- pen fields          (To Chorus)
                                                                  When you...

Ok, that line above goes for all verses, most verses' length vary, so be on the lookout. 
 
Chorus (Both 1st and 2nd go then to intro, but last one repeats the 
D and Dsus4 ending line three times)
    G          Csus2  G     Dsus2 (Bob fools around with D and Dsus4 too)
e|--333-33--333--3--3--33--000-000-000-000-------------------------------------|
B|--333-33--333--3--3--33--333-333-333-333-------------------------------------|
G|--000-00--000--0--0--00--222p000h222p000-------------------------------------|
D|--000-00--000-----0--00--000-----000-----------------------------------------|
A|--222-22--222--3--2--22------------------------------------------------------|
E|--333-33--333-----3--33------------------------------------------------------|
 ...live in the middle of nowhere           (x3) 
       
     G        Csus2   G       D  Dsus4                        
e|---3333--33---3-----3-------222333--------------------------------------------|
B|---3333--33---3-----3-------333333--------------------------------------------|
G|---0000--00---0-----0-------222222--------------------------------------------|
D|---0000--00-----------------000000--------------------------------------------|
A|---2222--22---3---------------------------------------------------------------|
E|---3333--33---------3---------------------------------------------------------|
 I pretend Brasilia turned to Trenton
        
       Csus2     G       INTRO (1st and Second Chorus only)    
e|-------3-------3---------------------------------------------------------------|
B|-------3-------3---------------------------------------------------------------|
G|-------0-------0---------------------------------------------------------------|
D|-------------------------------------------------------------------------------|
A|-------3-----------------------------------------------------------------------|
E|---------------3---------------------------------------------------------------|
     Brasilia crossed with Trenton

  3rd Chorus ending
       Csus2     G          D  Dsus4     Csus2     G   Go to Outro 
e|------3--------3----------222333--|-----3--------3------------------------------|
B|------3--------3----------333333--|-----3--------3------------------------------|
G|------0--------0----------222222--|-----0--------0------------------------------|
D|----------------------------------|---------------------------------------------|
A|------3---------------------------|-----3--------2------------------------------|
E|---------------3------------------|--------------3------------------------------|
     Brasilia crossed with Trenton     Brasilia crossed with Trenton!!!

  Outro is same as intro

  Outro Cello solo
e|---------------------------------------------------------------------------|
B|---------------------------------------------------------------------------|
G|---------------------------------------------------------------------------|
D|--7-9-10--9-7-9--7-5-4-4-5-7-0~--------------------------------------------|
A|---------------------------------------------------------------------------|
E|---------------------------------------------------------------------------|


| /  slide up
| \  slide down
| h  hammer-on
| p  pull-off
| ~  vibrato
| +  harmonic
| x  Mute note
===============================================================================
Tap to rate this tab
# A B C D E F G H I J K L M N O P Q R S T U V W X Y Z