Song name
# A B C D E F G H I J K L M N O P Q R S T U V W X Y Z

Bob Schneider - Oklahoma tab

-------------------------------------------------------------------------------
			     OKLAHOMA - Bob Schneider
-------------------------------------------------------------------------------
Tabbed by:  Mitchell Wyly
Email:  mwyly87@gmail.com

Tuning: Standard

Intro:       Verse:

e|-------0-|-----0--------------------0----------------------------|
B|-----1---|-----1------1--1-1--------1-------1--1-1---------------|
G|-----2---|-----2p0----2--2-2--------2p0-----2--2-2---------------|
D|--3------|-0h3--------0--0-0----0h3---------0--0-0---------------|
A|---------|--------0h3-3--3-3------------0h3-3--3-3---------------|
E|---------|-------------------------------------------------------|


Chorus:

e|---0----0----0---------------------------------------------------|
B|---0----1----1---------------------------------------------------|
G|---1----2----2---------------------------------------------------|
D|---2----3----0---------------------------------------------------|
A|---2---------3---------------------------------------------------|
E|---0-------------------------------------------------------------|



************************************

| /   slide up
| \   slide down
| h   hammer-on
| p   pull-off
| ~   vibrato
| +   harmonic
| x   Mute note
| b   Bend
| pb  Pre-bend
| br  Bend release
| pbr Pre-bend release
| brb Bend release bend

************************************
Tap to rate this tab
# A B C D E F G H I J K L M N O P Q R S T U V W X Y Z