Song name
# A B C D E F G H I J K L M N O P Q R S T U V W X Y Z

Bob Schneider - Bullets Live tab

-------------------------------------------------------------------------------
			     Bullets (Live) - Bob Schneider
-------------------------------------------------------------------------------
Tabbed by:dumfounded86

Tuning:Standard

This is the way he plays it live by himself.

e|---------------------------------------------------------------------------|
B|-----4-----2-----4-----2---------------------------------------------------|
G|-----4-----2-----4-----2---------------------------------------------------|
D|-----3-----1-----3-----1---------------------------------------------------|
A|-------------4-4---2-2-----------------------------------------------------|
E|-4-4---2-2-----------------------------------------------------------------|


************************************

| /   slide up
| \   slide down
| h   hammer-on
| p   pull-off
| ~   vibrato
| +   harmonic
| x   Mute note
| b   Bend
| pb  Pre-bend
| br  Bend release
| pbr Pre-bend release
| brb Bend release bend

************************************
Tap to rate this tab
# A B C D E F G H I J K L M N O P Q R S T U V W X Y Z