Song name
# A B C D E F G H I J K L M N O P Q R S T U V W X Y Z

Bob Schneider - 40 Dogs tab

this is my first tab he plays this though out the whole song


e------------------------------------------------------|
b------------------------------------------------------|
g------------------------------------------------------|
d---14-11---14-----------------------------------------|
a-------------14-16-12----14-16-12---------------------|
e------------------------------------------------------|

and this is how he mixes it up


e------------------------------------------------------|
b------------------------------------------------------|
g------------------------------------------------------|
d---14-11---16-14-16-14--------------------------------|
a------------------------14--16-14-16-14--12--16-14-16-|
e------------------------------------------------------|
Tap to rate this tab
 
# A B C D E F G H I J K L M N O P Q R S T U V W X Y Z