Song name
# A B C D E F G H I J K L M N O P Q R S T U V W X Y Z

Bob Schneider - Game Plan tab

play this for a bit
e-------------------------|
b-------------------------|
g-------------------------|
d--------7----------7-----|
a-----7---------7---------|
e--5--------5-------------|

change to this a little later
e--------------------------|
b--------------------------|
g--------------------------|
d--------1------------3----|
a-----3-----------3--------|
e--1----------1------------|

the randomly throw in strumming of Am(577555) and Fm7(131211) and thats all
Tap to rate this tab
# A B C D E F G H I J K L M N O P Q R S T U V W X Y Z