Song name
# A B C D E F G H I J K L M N O P Q R S T U V W X Y Z

Bob Seger - Still The Same tab

-------------------------------------------------------------------------------
			     Still the Same - Bob Seger
-------------------------------------------------------------------------------
Tabbed by: Matt Batzel
Email:

Tuning: E A D G B e
                                                     G
e|---------------------------------------------------3-------------|
B|---0-----1--1----0-----1---1---1---1---3---0-------3-------------|
G|---0-----0--0----0-----0---0---0---0---0---0-------0-------------|  x2
D|---2-----2--2----2-----2---2---2---2---2---2-------0-------------|
A|---3-----3--3----3-----3---3---3---3---3---2-------2-------------|
E|---------------------------------------------------3-------------|

Listen to the song for the strumming on G.

===============================================================================
Tap to rate this tab
# A B C D E F G H I J K L M N O P Q R S T U V W X Y Z