Song name
# A B C D E F G H I J K L M N O P Q R S T U V W X Y Z

Bob Seger - Fire Lake tab

|||			12-String:			|
E||--x--5--5--5-----5--5--5--|--x--0--0--0-----0--0--0--|
B||--x--5--5--5-----5--5--5--|--x--0--0--0-----0--0--0--|
G||--x--6--6--6-----6--6--6--|--x--1--1--1-----1--1--1--|
D||--x--7--7--7-----7--7--7--|--x--2--2--2-----2--2--2--|
A||--x--7--7--7-----7--7--7--|--x--2--2--2-----2--2--2--|
E||--x--5--5--5-----5--5--5--|--x--0--0--0-----0--0--0--|

--x--2--2--2-----2--2--2--|--2--2--2--2--2-----4-----|
--x--2--2--2-----2--2--2--|--2--2--2--2--2-----5-----|
--x--2--2--2-----2--2--2--|--2--2--2--2--2-----4-----|
--x--4--4--4-----4--4--4--|--4--4--4--4--4-----6-----|
--x--4--4--4-----4--4--4--|--4--4--4--4--4-----7-----|
--x--2--2--2-----2--2--2--|--2--2--2--2--2-----4-----|

--x--5--5--5-----5--5--5--|--x--0--0--0-----0--0--0--|
--x--5--5--5-----5--5--5--|--x--0--0--0-----0--0--0--|
--x--6--6--6-----6--6--6--|--x--1--1--1-----1--1--1--|
--x--7--7--7-----7--7--7--|--x--2--2--2-----2--2--2--|
--x--7--7--7-----7--7--7--|--x--2--2--2-----2--2--2--|
--x--5--5--5-----5--5--5--|--x--0--0--0-----0--0--0--|

--x--2--2--2-----2--2--2--|--2--2--2--2--2-----4-----|
--x--2--2--2-----2--2--2--|--2--2--2--2--2-----5-----|
--x--2--2--2-----2--2--2--|--2--2--2--2--2-----4-----|
--x--4--4--4-----4--4--4--|--4--4--4--4--4-----6-----|
--x--4--4--4-----4--4--4--|--4--4--4--4--4-----7-----|
--x--2--2--2-----2--2--2--|--2--2--2--2--2-----4-----|

--x--5--5--5-----5--5--5--|--x--0--0--0-----0--0--0--|
--x--5--5--5-----5--5--5--|--x--0--0--0-----0--0--0--|
--x--6--6--6-----6--6--6--|--x--1--1--1-----1--1--1--|
--x--7--7--7-----7--7--7--|--x--2--2--2-----2--2--2--|
--x--7--7--7-----7--7--7--|--x--2--2--2-----2--2--2--|
--x--5--5--5-----5--5--5--|--x--0--0--0-----0--0--0--|

--x--2--2--2-----2--2--2--|--2--2--2--2--2-----4-----|
--x--2--2--2-----2--2--2--|--2--2--2--2--2-----5-----|
--x--2--2--2-----2--2--2--|--2--2--2--2--2-----4-----|
--x--4--4--4-----4--4--4--|--4--4--4--4--4-----6-----|
--x--4--4--4-----4--4--4--|--4--4--4--4--4-----7-----|
--x--2--2--2-----2--2--2--|--2--2--2--2--2-----4-----|

--x--5--5--5-----5--5--5--|--x--0--0--0-----0--0--0--|
--x--5--5--5-----5--5--5--|--x--0--0--0-----0--0--0--|
--x--6--6--6-----6--6--6--|--x--1--1--1-----1--1--1--|
--x--7--7--7-----7--7--7--|--x--2--2--2-----2--2--2--|
--x--7--7--7-----7--7--7--|--x--2--2--2-----2--2--2--|
--x--5--5--5-----5--5--5--|--x--0--0--0-----0--0--0--|

--x--2--2--2-----2--2--2--|--2--2--2--2--2-----4-----|
--x--2--2--2-----2--2--2--|--2--2--2--2--2-----5-----|
--x--2--2--2-----2--2--2--|--2--2--2--2--2-----4-----|
--x--4--4--4-----4--4--4--|--4--4--4--4--4-----6-----|
--x--4--4--4-----4--4--4--|--4--4--4--4--4-----7-----|
--x--2--2--2-----2--2--2--|--2--2--2--2--2-----4-----|

--x--5--5--5-----5--5--5--|--x--0--0--0-----0--0--0--|
--x--5--5--5-----5--5--5--|--x--0--0--0-----0--0--0--|
--x--6--6--6-----6--6--6--|--x--1--1--1-----1--1--1--|
--x--7--7--7-----7--7--7--|--x--2--2--2-----2--2--2--|
--x--7--7--7-----7--7--7--|--x--2--2--2-----2--2--2--|
--x--5--5--5-----5--5--5--|--x--0--0--0-----0--0--0--|

--x--2--2--2-----2--2--2--|--2--2--2--2--2-----4-----|
--x--2--2--2-----2--2--2--|--2--2--2--2--2-----5-----|
--x--2--2--2-----2--2--2--|--2--2--2--2--2-----4-----|
--x--4--4--4-----4--4--4--|--4--4--4--4--4-----6-----|
--x--4--4--4-----4--4--4--|--4--4--4--4--4-----7-----|
--x--2--2--2-----2--2--2--|--2--2--2--2--2-----4-----|

--x--5--5--5-----5--5--5--|--x--0--0--0-----0--0--0--|
--x--5--5--5-----5--5--5--|--x--0--0--0-----0--0--0--|
--x--6--6--6-----6--6--6--|--x--1--1--1-----1--1--1--|
--x--7--7--7-----7--7--7--|--x--2--2--2-----2--2--2--|
--x--7--7--7-----7--7--7--|--x--2--2--2-----2--2--2--|
--x--5--5--5-----5--5--5--|--x--0--0--0-----0--0--0--|

--x--2--2--2-----2--2--2--|--2--2--2--2--2-----4-----|
--x--2--2--2-----2--2--2--|--2--2--2--2--2-----5-----|
--x--2--2--2-----2--2--2--|--2--2--2--2--2-----4-----|
--x--4--4--4-----4--4--4--|--4--4--4--4--4-----6-----|
--x--4--4--4-----4--4--4--|--4--4--4--4--4-----7-----|
--x--2--2--2-----2--2--2--|--2--2--2--2--2-----4-----|

--x--5--5--5-----5--5--5--|--x--0--0--0-----0--0--0--|
--x--5--5--5-----5--5--5--|--x--0--0--0-----0--0--0--|
--x--6--6--6-----6--6--6--|--x--1--1--1-----1--1--1--|
--x--7--7--7-----7--7--7--|--x--2--2--2-----2--2--2--|
--x--7--7--7-----7--7--7--|--x--2--2--2-----2--2--2--|
--x--5--5--5-----5--5--5--|--x--0--0--0-----0--0--0--|

--x--2--2--2-----2--2--2--|--2--2--2--2--2-----4-----|
--x--2--2--2-----2--2--2--|--2--2--2--2--2-----5-----|
--x--2--2--2-----2--2--2--|--2--2--2--2--2-----4-----|
--x--4--4--4-----4--4--4--|--4--4--4--4--4-----6-----|
--x--4--4--4-----4--4--4--|--4--4--4--4--4-----7-----|
--x--2--2--2-----2--2--2--|--2--2--2--2--2-----4-----|

--x--5--5--5-----5--5--5--|--x--0--0--0-----0--0--0--|
--x--5--5--5-----5--5--5--|--x--0--0--0-----0--0--0--|
--x--6--6--6-----6--6--6--|--x--1--1--1-----1--1--1--|
--x--7--7--7-----7--7--7--|--x--2--2--2-----2--2--2--|
--x--7--7--7-----7--7--7--|--x--2--2--2-----2--2--2--|
--x--5--5--5-----5--5--5--|--x--0--0--0-----0--0--0--|

--x--2--2--2-----2--2--2--|--2--2--2--2--2-----4-----|
--x--2--2--2-----2--2--2--|--2--2--2--2--2-----5-----|
--x--2--2--2-----2--2--2--|--2--2--2--2--2-----4-----|
--x--4--4--4-----4--4--4--|--4--4--4--4--4-----6-----|
--x--4--4--4-----4--4--4--|--4--4--4--4--4-----7-----|
--x--2--2--2-----2--2--2--|--2--2--2--2--2-----4-----|

--x--5--5--5-----5--5--5--|--x--0--0--0-----0--0--0--|
--x--5--5--5-----5--5--5--|--x--0--0--0-----0--0--0--|
--x--6--6--6-----6--6--6--|--x--1--1--1-----1--1--1--|
--x--7--7--7-----7--7--7--|--x--2--2--2-----2--2--2--|
--x--7--7--7-----7--7--7--|--x--2--2--2-----2--2--2--|
--x--5--5--5-----5--5--5--|--x--0--0--0-----0--0--0--|

--x--2--2--2-----2--2--2--|--2--2--2--2--2-----4-----|
--x--2--2--2-----2--2--2--|--2--2--2--2--2-----5-----|
--x--2--2--2-----2--2--2--|--2--2--2--2--2-----4-----|
--x--4--4--4-----4--4--4--|--4--4--4--4--4-----6-----|
--x--4--4--4-----4--4--4--|--4--4--4--4--4-----7-----|
--x--2--2--2-----2--2--2--|--2--2--2--2--2-----4-----|

--x--5--5--5-----5--5--5--|--x--0--0--0-----0--0--0--|
--x--5--5--5-----5--5--5--|--x--0--0--0-----0--0--0--|
--x--6--6--6-----6--6--6--|--x--1--1--1-----1--1--1--|
--x--7--7--7-----7--7--7--|--x--2--2--2-----2--2--2--|
--x--7--7--7-----7--7--7--|--x--2--2--2-----2--2--2--|
--x--5--5--5-----5--5--5--|--x--0--0--0-----0--0--0--|

--x--2--2--2-----2--2--2--|--2--2--2--2--2-----4-----|
--x--2--2--2-----2--2--2--|--2--2--2--2--2-----5-----|
--x--2--2--2-----2--2--2--|--2--2--2--2--2-----4-----|
--x--4--4--4-----4--4--4--|--4--4--4--4--4-----6-----|
--x--4--4--4-----4--4--4--|--4--4--4--4--4-----7-----|
--x--2--2--2-----2--2--2--|--2--2--2--2--2-----4-----|

--x--5--5--5-----5--5--5--|--x--0--0--0-----0--0--0--|
--x--5--5--5-----5--5--5--|--x--0--0--0-----0--0--0--|
--x--6--6--6-----6--6--6--|--x--1--1--1-----1--1--1--|
--x--7--7--7-----7--7--7--|--x--2--2--2-----2--2--2--|
--x--7--7--7-----7--7--7--|--x--2--2--2-----2--2--2--|
--x--5--5--5-----5--5--5--|--x--0--0--0-----0--0--0--|

--x--2--2--2-----2--2--2--|--2--2--2--2--2-----4----|-----------------|
--x--2--2--2-----2--2--2--|--2--2--2--2--2-----5----|----------3------|
--x--2--2--2-----2--2--2--|--2--2--2--2--2-----4----|-------2-------2-|
--x--4--4--4-----4--4--4--|--4--4--4--4--4-----6----|--0--------------|
--x--4--4--4-----4--4--4--|--4--4--4--4--4-----7----|-----------------|
--x--2--2--2-----2--2--2--|--2--2--2--2--2-----4----|-----------------|

---------------------|------------2---------|------------2---------|
---------------------|----------------------|-------2--------------|
------------6--------|-------2---------2----|--2--------------2----|
-------6-------------|--4-------------------|----------------------|
--4------------------|----------------------|----------------------|
---------------------|----------------------|----------------------|

------------4--------|------------4---------|------------2---------|
---------------------|----------------------|-------3---------3----|
-------6---------6---|-------6---------6----|--4-------------------|
---------------------|--6-------------------|----------------------|
--4------------------|----------------------|----------------------|
---------------------|----------------------|----------------------|

------------2--------|------------2---------|------------2---------|
-------3-------------|----------------------|--2-------------------|
--4--------------4---|-------2---------2----|-------2---------2----|
---------------------|--0-------------------|----------------------|
---------------------|----------------------|----------------------|
---------------------|----------------------|----------------------|

---------------------|----------------------|-------0--0-------0--0--|
--2------------------|----------------------|-------0--0-------0--0--|
------------2--------|------------2---------|-------1--1-------1--1--|
-------2---------2---|-------2---------2----|-------2--2-------2--2--|
---------------------|--4-------------------|-------------2----------|
---------------------|----------------------|--0---------------------|

---0--0-------0--0---|-----0--0-------0--0--|-------0--0-------0--0--|
---0--0-------0--0---|-----0--0-------0--0--|-------0--0-------0--0--|
---1--1-------1--1---|-----1--1-------1--1--|-------1--1-------1--1--|
---2--2-------2--2---|-----2--2-------2--2--|-------2--2-------2--2--|
---------2-----------|-----------2----------|-------------2----------|
-0-------------------|-0--------------------|--0---------------------|

-0---------------0---|-x--5--5--5---5--5--5-|--x--0--0--0--0--0--0---|
-0---------------0---|-x--5--5--5---5--5--5-|--x--0--0--0--0--0--0---|
-1---------------1---|-x--6--6--6---6--6--6-|--x--1--1--1--1--1--1---|
-2-------------------|-x--7--7--7---7--7--7-|--x--2--2--2--2--2--2---|
-2-------------------|-x--7--7--7---7--7--7-|--x--2--2--2--2--2--2---|
-0-------------------|-x--5--5--5---5--5--5-|--x--0--0--0--0--0--0---|

--x--2--2--2-----2--2--2--|--2--2--2--2--2-----4-----|
--x--2--2--2-----2--2--2--|--2--2--2--2--2-----5-----|
--x--2--2--2-----2--2--2--|--2--2--2--2--2-----4-----|
--x--4--4--4-----4--4--4--|--4--4--4--4--4-----6-----|
--x--4--4--4-----4--4--4--|--4--4--4--4--4-----7-----|
--x--2--2--2-----2--2--2--|--2--2--2--2--2-----4-----|

--x--5--5--5-----5--5--5--|--x--0--0--0-----0--0--0--|
--x--5--5--5-----5--5--5--|--x--0--0--0-----0--0--0--|
--x--6--6--6-----6--6--6--|--x--1--1--1-----1--1--1--|
--x--7--7--7-----7--7--7--|--x--2--2--2-----2--2--2--|
--x--7--7--7-----7--7--7--|--x--2--2--2-----2--2--2--|
--x--5--5--5-----5--5--5--|--x--0--0--0-----0--0--0--|

--x--2--2--2-----2--2--2--|--2--2--2--2--2-----4-----|
--x--2--2--2-----2--2--2--|--2--2--2--2--2-----5-----|
--x--2--2--2-----2--2--2--|--2--2--2--2--2-----4-----|
--x--4--4--4-----4--4--4--|--4--4--4--4--4-----6-----|
--x--4--4--4-----4--4--4--|--4--4--4--4--4-----7-----|
--x--2--2--2-----2--2--2--|--2--2--2--2--2-----4-----|

--x--5--5--5-----5--5--5--|--x--0--0--0-----0--0--0--|
--x--5--5--5-----5--5--5--|--x--0--0--0-----0--0--0--|
--x--6--6--6-----6--6--6--|--x--1--1--1-----1--1--1--|
--x--7--7--7-----7--7--7--|--x--2--2--2-----2--2--2--|
--x--7--7--7-----7--7--7--|--x--2--2--2-----2--2--2--|
--x--5--5--5-----5--5--5--|--x--0--0--0-----0--0--0--|

--x--2--2--2-----2--2--2--|--2--2--2--2--2-----4-----|
--x--2--2--2-----2--2--2--|--2--2--2--2--2-----5-----|
--x--2--2--2-----2--2--2--|--2--2--2--2--2-----4-----|
--x--4--4--4-----4--4--4--|--4--4--4--4--4-----6-----|
--x--4--4--4-----4--4--4--|--4--4--4--4--4-----7-----|
--x--2--2--2-----2--2--2--|--2--2--2--2--2-----4-----|

--x--5--5--5-----5--5--5--|--x--0--0--0-----0--0--0--|
--x--5--5--5-----5--5--5--|--x--0--0--0-----0--0--0--|
--x--6--6--6-----6--6--6--|--x--1--1--1-----1--1--1--|
--x--7--7--7-----7--7--7--|--x--2--2--2-----2--2--2--|
--x--7--7--7-----7--7--7--|--x--2--2--2-----2--2--2--|
--x--5--5--5-----5--5--5--|--x--0--0--0-----0--0--0--|

--x--2--2--2-----2--2--2--|--2--2--2--2--2-----4-----|
--x--2--2--2-----2--2--2--|--2--2--2--2--2-----5-----|
--x--2--2--2-----2--2--2--|--2--2--2--2--2-----4-----|
--x--4--4--4-----4--4--4--|--4--4--4--4--4-----6-----|
--x--4--4--4-----4--4--4--|--4--4--4--4--4-----7-----|
--x--2--2--2-----2--2--2--|--2--2--2--2--2-----4-----|

--x--5--5--5-----5--5--5--|--x--0--0--0-----0--0--0--|
--x--5--5--5-----5--5--5--|--x--0--0--0-----0--0--0--|
--x--6--6--6-----6--6--6--|--x--1--1--1-----1--1--1--|
--x--7--7--7-----7--7--7--|--x--2--2--2-----2--2--2--|
--x--7--7--7-----7--7--7--|--x--2--2--2-----2--2--2--|
--x--5--5--5-----5--5--5--|--x--0--0--0-----0--0--0--|

--x--2--2--2-----2--2--2--|--2--2--2--2--2-----4-----|
--x--2--2--2-----2--2--2--|--2--2--2--2--2-----5-----|
--x--2--2--2-----2--2--2--|--2--2--2--2--2-----4-----|
--x--4--4--4-----4--4--4--|--4--4--4--4--4-----6-----|
--x--4--4--4-----4--4--4--|--4--4--4--4--4-----7-----|
--x--2--2--2-----2--2--2--|--2--2--2--2--2-----4-----|

--x--5--5--5-----5--5--5--|--x--0--0--0-----0--0--0--|
--x--5--5--5-----5--5--5--|--x--0--0--0-----0--0--0--|
--x--6--6--6-----6--6--6--|--x--1--1--1-----1--1--1--|
--x--7--7--7-----7--7--7--|--x--2--2--2-----2--2--2--|
--x--7--7--7-----7--7--7--|--x--2--2--2-----2--2--2--|
--x--5--5--5-----5--5--5--|--x--0--0--0-----0--0--0--|

--x--2--2--2-----2--2--2--|--2--2--2--2--2-----4-----|
--x--2--2--2-----2--2--2--|--2--2--2--2--2-----5-----|
--x--2--2--2-----2--2--2--|--2--2--2--2--2-----4-----|
--x--4--4--4-----4--4--4--|--4--4--4--4--4-----6-----|
--x--4--4--4-----4--4--4--|--4--4--4--4--4-----7-----|
--x--2--2--2-----2--2--2--|--2--2--2--2--2-----4-----|

--x--5--5--5-----5--5--5--|--x--0--0--0-----0--0--0--|
--x--5--5--5-----5--5--5--|--x--0--0--0-----0--0--0--|
--x--6--6--6-----6--6--6--|--x--1--1--1-----1--1--1--|
--x--7--7--7-----7--7--7--|--x--2--2--2-----2--2--2--|
--x--7--7--7-----7--7--7--|--x--2--2--2-----2--2--2--|
--x--5--5--5-----5--5--5--|--x--0--0--0-----0--0--0--|

--x--2--2--2-----2--2--2--|--2--2--2--2--2-----4-----|
--x--2--2--2-----2--2--2--|--2--2--2--2--2-----5-----|
--x--2--2--2-----2--2--2--|--2--2--2--2--2-----4-----|
--x--4--4--4-----4--4--4--|--4--4--4--4--4-----6-----|
--x--4--4--4-----4--4--4--|--4--4--4--4--4-----7-----|
--x--2--2--2-----2--2--2--|--2--2--2--2--2-----4-----|

--x--5--5--5-----5--5--5--|--x--0--0--0-----0--0--0--|
--x--5--5--5-----5--5--5--|--x--0--0--0-----0--0--0--|
--x--6--6--6-----6--6--6--|--x--1--1--1-----1--1--1--|
--x--7--7--7-----7--7--7--|--x--2--2--2-----2--2--2--|
--x--7--7--7-----7--7--7--|--x--2--2--2-----2--2--2--|
--x--5--5--5-----5--5--5--|--x--0--0--0-----0--0--0--|

--x--2--2--2-----2--2--2--|--2--2--2--2--2-----4-----|
--x--2--2--2-----2--2--2--|--2--2--2--2--2-----5-----|
--x--2--2--2-----2--2--2--|--2--2--2--2--2-----4-----|
--x--4--4--4-----4--4--4--|--4--4--4--4--4-----6-----|
--x--4--4--4-----4--4--4--|--4--4--4--4--4-----7-----|
--x--2--2--2-----2--2--2--|--2--2--2--2--2-----4-----|

--x--5--5--5-----5--5--5--|--x--0--0--0-----0--0--0--|
--x--5--5--5-----5--5--5--|--x--0--0--0-----0--0--0--|
--x--6--6--6-----6--6--6--|--x--1--1--1-----1--1--1--|
--x--7--7--7-----7--7--7--|--x--2--2--2-----2--2--2--|
--x--7--7--7-----7--7--7--|--x--2--2--2-----2--2--2--|
--x--5--5--5-----5--5--5--|--x--0--0--0-----0--0--0--|

--x--2--2--2-----2--2--2--|--2--2--2--2--2-----4-----|
--x--2--2--2-----2--2--2--|--2--2--2--2--2-----5-----|
--x--2--2--2-----2--2--2--|--2--2--2--2--2-----4-----|
--x--4--4--4-----4--4--4--|--4--4--4--4--4-----6-----|
--x--4--4--4-----4--4--4--|--4--4--4--4--4-----7-----|
--x--2--2--2-----2--2--2--|--2--2--2--2--2-----4-----|

--x--5--5--5-----5--5--5--|--x--0--0--0-----0--0--0--|
--x--5--5--5-----5--5--5--|--x--0--0--0-----0--0--0--|
--x--6--6--6-----6--6--6--|--x--1--1--1-----1--1--1--|
--x--7--7--7-----7--7--7--|--x--2--2--2-----2--2--2--|
--x--7--7--7-----7--7--7--|--x--2--2--2-----2--2--2--|
--x--5--5--5-----5--5--5--|--x--0--0--0-----0--0--0--|

--x--2--2--2-----2--2--2--|--2--2--2--2--2-----4-----|
--x--2--2--2-----2--2--2--|--2--2--2--2--2-----5-----|
--x--2--2--2-----2--2--2--|--2--2--2--2--2-----4-----|
--x--4--4--4-----4--4--4--|--4--4--4--4--4-----6-----|
--x--4--4--4-----4--4--4--|--4--4--4--4--4-----7-----|
--x--2--2--2-----2--2--2--|--2--2--2--2--2-----4-----|

--x--5--5--5-----5--5--5--|--x--0--0--0-----0--0--0--|
--x--5--5--5-----5--5--5--|--x--0--0--0-----0--0--0--|
--x--6--6--6-----6--6--6--|--x--1--1--1-----1--1--1--|
--x--7--7--7-----7--7--7--|--x--2--2--2-----2--2--2--|
--x--7--7--7-----7--7--7--|--x--2--2--2-----2--2--2--|
--x--5--5--5-----5--5--5--|--x--0--0--0-----0--0--0--|

--x--2--2--2-----2--2--2--|--2--2--2--2--2-----4-----|
--x--2--2--2-----2--2--2--|--2--2--2--2--2-----5-----|
--x--2--2--2-----2--2--2--|--2--2--2--2--2-----4-----|
--x--4--4--4-----4--4--4--|--4--4--4--4--4-----6-----|
--x--4--4--4-----4--4--4--|--4--4--4--4--4-----7-----|
--x--2--2--2-----2--2--2--|--2--2--2--2--2-----4-----|

--x--5--5--5-----5--5--5--|--x--0--0--0-----0--0--0--|
--x--5--5--5-----5--5--5--|--x--0--0--0-----0--0--0--|
--x--6--6--6-----6--6--6--|--x--1--1--1-----1--1--1--|
--x--7--7--7-----7--7--7--|--x--2--2--2-----2--2--2--|
--x--7--7--7-----7--7--7--|--x--2--2--2-----2--2--2--|
--x--5--5--5-----5--5--5--|--x--0--0--0-----0--0--0--|

--x--2--2--2-----2--2--2--|--2--2--2--2--2-----4-----||
--x--2--2--2-----2--2--2--|--2--2--2--2--2-----5-----||
--x--2--2--2-----2--2--2--|--2--2--2--2--2-----4-----||
--x--4--4--4-----4--4--4--|--4--4--4--4--4-----6-----||
--x--4--4--4-----4--4--4--|--4--4--4--4--4-----7-----||
--x--2--2--2-----2--2--2--|--2--2--2--2--2-----4-----||
Tap to rate this tab
# A B C D E F G H I J K L M N O P Q R S T U V W X Y Z