Song name
# A B C D E F G H I J K L M N O P Q R S T U V W X Y Z

Bob Seger - Old Time Rock And Roll chords

Highlighted       Show chord diagrams
E|------------------------------------------|
B|------------------------------------------|
G|------------------------------------------|
D|------------------------------------------|
A|-9-9-9-9-9--------------9-9-9-9-9---------|
E|-----------12-11-9----------------12-11-9-|



  F# 
  just take those old records off the shelf 
  B 
ill sit and listen to them  by myself 
  C# 
todays music aint  got the same soul 
  F# 
i like that old time  rock and roll 

  C# F# 
  dont try to take me to a di sco 
  B 
youll never even get me  out on the floor 
  C# 
in ten minutes ill be  leavin for the door 
  F# 
i like that old time  rock and roll 

  C# F# 
  still like that old time  rock and roll 
  B 
that kind of music just  soothes the soul 
  C# 
i reminise abuot the  days of gold 
  F# 
with that old time  rock and roll 

  C# F# 
  wont go to hear them play a ta ngo 
  B 
id rather hear some blues and  funky old soul 
  C# 
theres only one sure way to  get me to go 
  F# 
start playing old time  rock and roll 


  C# F# 
  call me a relic call me  what you will 
  B 
say im old fashioned say im  over the hill 
  C# 
todays music aint  got the same soul 
  F# 
i like that old time  rock and roll 

  C# F# 
  still like that old time  rock and roll 
  B 
that kind of music just  soothes the soul 
  C# 
i reminise about the  days of gold 
  F# 
with that old time  rock and roll 

then just repeat the chorus two more times 

theres also a solo that i came up with. 
it is SIMILAR to the outro solo but it sounds great if you 
try it. When i was in a band i played this outro solo. it is one 
of my favorite songs. 

 

E|-------------------------------|
B|-9b9-7-9b9-7-9b9-7-9b9-7-9b9-7-|
G|-------------------------------|
D|-------------------------------|
A|-------------------------------|
E|-------------------------------|

E|-------------------------------|
B|-9b9-7-9b9-7-9b9-7-9b9-7-9b9-7-|
G|-------------------------------|
D|-------------------------------|
A|-------------------------------|
E|-------------------------------|

E|---------------------------------------------14======----|
B|-9-9-9-9-9-9-9-9-9-10-9-7-9-10-7h9h10--9=====------------|
G|---------------------------------------------------------|
D|---------------------------------------------------------|
A|---------------------------------------------------------|
E|-----------------------------------------------------14--|


hope u like it. 

I STILL LOVE THAT OLD TIME ROCK AND ROLL!!!!!!! 



Tap to rate this tab
# A B C D E F G H I J K L M N O P Q R S T U V W X Y Z