Song name
# A B C D E F G H I J K L M N O P Q R S T U V W X Y Z

Bob Seger - Night Moves tab

E |--3--------3--3--3-----3----|--3--3-----3-----1-----0----|
B |--0--------3--3--3-----0----|--0--3-----3-----1--x--1----|
G |--0-----0--0--0--0--0--0----|--0-----0--0--0--2--x--0----|
D |--0--0--0-----0--0--0--0----|--0-----0--0--x--3--x--2----|
A |--2--2--x-----2-----x--2----|--2-----x-----x--------3----|
E |--3-----x-----3-----x-------|--3-------------------------|


--0--------0--0--------0----|--0--------0-----1--1-------|
--1--------1--1--------1----|--1--------1--x--1--1-------|
--0-----0--0--0-----0--0----|--0-----0--0--0--2--2--0----|
--2-----x--2--2-----x--2----|--2-----x--2--x--3--3--0----|
--3-----x--3--3-----x--3----|--3-----x--3-----------2----|
----------------------------|-----------------------3----|


--3--------3--3--------3----|--3--------3-----1----------|
--3--------3--3--------3----|--3--------3-----1--x--1----|
--0-----0--0--0-----0--0----|--0-----0--0--0--2--x--0----|
--0-----0--0--0-----x--0----|--0-----x-----x--3--x--2----|
--2-----x--2--2--------2----|--2-----x-----x--------3----|
--3-----------3-------------|--3-------------------------|


--0--------0--0--------0----|-----------0-----1--1--0----||
--1--------1--1--1g----1----|--1--------1-----1--1--0----||
--0-----0--0--0-----0--0----|--0-----0--0--0--2--2--0----||
--2-----x--2--2-----x--2----|--2-----x--2--x--3--3-------||
--3-----x--3--3-----x--3----|--3-----x--3--x-------------||
----------------------------|----------------------------||


-3--------3--3--------3----|--3--------3-----1--x--0----|
-3--------3--3--------3----|--3--------3--0--1--x--1----|
o0-----0--0--0-----0--0----|--0-----0--0--0--2--x--0----|
o0-----0--0--0-----x--0----|--0-----x-----x--3--x--2----|
-2-----x--2--2-----x--2----|--2-----x-----x--------3----|
-3-----------3-------------|--3-------------------------|


--0--------0--0--------0----|--0--------0-----1--1--0---||
--1--------1--1--------1----|--1--------1-----1--1--0---||
--0-----0--0--0-----0--0----|--0-----0--0--0--2--2--0--o||
--2-----x--2--2-----x--2----|--2-----x--2--x--3--3-----o||
--3-----x--3--3-----x--3----|--3-----x--3--x------------||
----------------------------|---------------------------||


--3--------3--3--------3----|--3--------3-----1--x--0----|
--3--------3--3--------3----|--3--------3--0--1--x--1----|
--0-----0--0--0-----0--0----|--0-----0--0--0--2--x--0----|
--0-----0--0--0-----x--0----|--0-----x-----x--3--x--2----|
--2-----x--2--2-----x--2----|--2-----x-----x--------3----|
--3-----------3-------------|--3-------------------------|


--0--------0--0--------0----|--0--------0-----1--1--0----|
--1--------1--1--------1----|--1--------1-----1--1--0----|
--0-----0--0--0-----0--0----|--0-----0--0--0--2--2--0----|
--2-----x--2--2-----x--2----|--2-----x--2--x--3--3-------|
--3-----x--3--3-----x--3----|--3-----x--3--x-------------|
----------------------------|----------------------------|


--3--------3--3--------3----|--3--------3-----1--x--0----|
--3--------3--3--------3----|--3--------3--0--1--x--1----|
--0-----0--0--0-----0--0----|--0-----0--0--0--2--x--0----|
--0-----0--0--0-----x--0----|--0-----x-----x--3--x--2----|
--2-----x--2--2-----x--2----|--2-----x-----x--------3----|
--3-----------3-------------|--3-------------------------|


--0--------0--0--------0----|--0--------0-----1--1--0----|
--1--------1--1--------1----|--1--------1-----1--1--0----|
--0-----0--0--0-----0--0----|--0-----0--0--0--2--2--0----|
--2-----x--2--2-----x--2----|--2-----x--2--x--3--3-------|
--3-----x--3--3-----x--3----|--3-----x--3--x-------------|
----------------------------|----------------------------|


--3--------3--3--------3----|--3--------3-----1--x--0----|
--3--------3--3--------3----|--3--------3--0--1--x--1----|
--0-----0--0--0-----0--0----|--0-----0--0--0--2--x--0----|
--0-----0--0--0-----x--0----|--0-----x-----x--3--x--2----|
--2-----x--2--2-----x--2----|--2-----x-----x--------3----|
--3-----------3-------------|--3-------------------------|


--0--------0--0--------0----|--0--------0--0--2--2--0----||
--1--------1--1--------1----|--1--------1--1--3--3--0----||
--0-----0--0--0-----0--0----|--0-----0--0--0--2--2--0----||
--2-----x--2--2-----x--2----|--2-----x--2--2--0--0-------||
--3-----x--3--3-----x--3----|--3--------3--3-------------||
----------------------------|----------------------------||
Tap to rate this tab
# A B C D E F G H I J K L M N O P Q R S T U V W X Y Z