Guitaretab - guitar tabs
Song name
# A B C D E F G H I J K L M N O P Q R S T U V W X Y Z

Bob Seger - Mainstreet tab

#----------------------------------PLEASE NOTE---------------------------------#
#This file is the author's own work and represents their interpretation of the #
#song. You may only use this file for private study, scholarship, or research. #
#------------------------------------------------------------------------------##

                                   MAINSTREET
               As recorded by Bob Seger And The Silver Bullet Band

Gtr I (E A D G B E) - 'Untitled'
Gtr II (E A D G B E) - 'Untitled'
Gtr III (E A D G B E) - 'Untitled'

 Intro
  Slow Q=64
 4/4
                     Gtr I
                                      ~~
  W                   E   E  S  S  E  Q   S  S  E
|-----------------||-17--17-17-15-14-15--15-17-15-|
|-----------------||------------------------------|
|-----------------||------------------------------|
|-----------------||------------------------------|
|-----------------||------------------------------|
|-----------------||------------------------------|
|
| Gtr II
| H    Q  S S S S    +W
|-----------------||------------------------------|
|-------------0-3-||-(3)--------------------------|
|-----------2-----||------------------------------|
|-----------------||------------------------------|
|-----------------||------------------------------|
|-----------------||------------------------------|


                                       D             C
                    ~~                  ~~~           ~~~
   S      +E   +S   H     S  S  S  S    Q    S  S  E  Q    S  S  E
|------------------------------14-15-|-17---17-15-14-15---15-17-15--|
|-17b19==(17)r(17)-15----15-17-------|------------------------------|
|------------------------------------|------------------------------|
|------------------------------------|------------------------------|
|------------------------------------|------------------------------|
|------------------------------------|------------------------------|
|
|                                      Gtr III
|  W                                    Q.         E  Q.         E
|------------------------------------|--2-------------0-------------|
|------------------------------------|--3-------------1-------------|
|------------------------------------|--2-------------0-------------|
|------------------------------------|--0-------------2-------------|
|------------------------------------|----------------3-------------|
|------------------------------------|------------------------------|


         G              Em
                    ~~         ~~~~~~~
   a      +E.  +S   Q    S  S  E  +E   S  S
|-------------------------------------------||
|-17b19==(17)r(17)-15---12h15p12-(12)-10h12p||
|-------------------------------------------||
|-------------------------------------------||
|-------------------------------------------||
|-------------------------------------------||
|
|          Q.         E  Q.            E
|----------3-------------0------------------||
|----------0-------------0------------------||
|----------0-------------0------------------||
|----------0-------------2------------------||
|----------2-------------2------------------||
|----------3-------------0------------------||


 Verse 1
  D               C               G               Em
   ~~~
   H.                     Q       W
|-------------------------------|----------------------------------|
|-10----------------------------|----------------------------------|
|-------------------------------|----------------------------------|
|-------------------------------|----------------------------------|
|-------------------------------|----------------------------------|
|-------------------------------|----------------------------------|
|
|  S  S S S S S E S S S S S S E   S S S S S S S S S S S S +S  S E
|-----2-----0h2-----0-----------|---3-----3-----3---0---------0----|
|---------------3-------1-------|-------0---0-----------0-(0)---0--|
|-------2-------------0-------0-|-----0-------0-------0------------|
|--0------0---------------0h2---|----------------------------------|
|-----------------3-------------|----------------------------------|
|-------------------------------|-3---------------0----------------|


    D             C               G               Em
    Gtr III
    S S S S S S E S S S S S S E   S S S S S S S S S S S S +S  S E  3x
||----2-----0h2-----0-----------|---3-----3-----3---0---------0----||
||o-------------3-------1-------|-------0---0-----------0-(0)---0-o||
||------2-------------0-------0-|-----0-------0-------0------------||
||--0-----0---------------0h2---|----------------------------------||
||o---------------3-------------|---------------------------------o||
||------------------------------|-3---------------0----------------||


 Pre-Chorus 1
  Bm     Bsus2         Bm     Bsus2
  Q  E E E S S S S E   Q  E E E S S S S E
|-2--2---2-------2---|-2--2---2-------2---|
|-3--3---2-----2---2-|-3--3---2-----2---2-|
|-4--4---4---4-------|-4--4---4---4-------|
|------4---4---------|------4---4---------|
|-2--2---2-----------|-2--2---2-----------|
|--------------------|--------------------|


  F#m           G             Em          A7sus4
  E S S S S S S E S S S S E   E S S S S E e Q.
|-2-----2-------3-------3---|-0-------0----------||
|-2---2---2---2-0-0---0---0-|---0---0---0-3-3----||
|-2-2-------2---0---0-------|-----0-------0-0----||
|-4-------------0-----------|-2-----------2-2----||
|---------------------------|-------------0-0----||
|---------------------------|--------------------||


 Chorus
  D                               C
  Gtr I
   E    E    S  S  E  E    E    S  S  E
|-17---17---17-15-14-15---15---15-17-15-|
|---------------------------------------|
|---------------------------------------|
|---------------------------------------|
|---------------------------------------|
|---------------------------------------|
|
| Gtr III
|  S S  S S  S  S  E  S S  S S  S  S  E
|----2-------0h=2-------0---------------|
|------------------3---------1----------|
|-------2------------------0----------0-|
|--0------0---------------------0h=2----|
|---------------------3-----------------|
|---------------------------------------|


  G                            Em                D                  C
                      ~~~
   S      +E     +S   H.                          E    E    S  S  E  E    E    S  S  E
|----------------------------------------------|-17---17---17-15-14-15---15---15-17-15--|
|-17b19==(17)r==(17)-15------------------------|----------------------------------------|
|----------------------------------------------|----------------------------------------|
|----------------------------------------------|----------------------------------------|
|----------------------------------------------|----------------------------------------|
|----------------------------------------------|----------------------------------------|
|
|  S       S  S   S   S  S S S S S S S +S  S E    S S  S S  S  S  E  S S  S S  S  S  E
|----------3----------3------3---0---------0---|----2-------0h=2-------0----------------|
|-----------------0------0-----------0-(0)---0-|------------------3---------1-----------|
|-------------0------------0-------0-----------|-------2------------------0----------0--|
|----------------------------------------------|--0------0---------------------0h=2-----|
|----------------------------------------------|---------------------3------------------|
|--3---------------------------0---------------|----------------------------------------|


         G                        Em
                                   ~~
   a      +E.      +S   E    S  S  Q        S   S  S  S
|-------------------------------------------------------||
|-17b19==(17)r====(17)-15---12h15p12-------10h=12p10h12p||
|-------------------------------------------------------||
|-------------------------------------------------------||
|-------------------------------------------------------||
|-------------------------------------------------------||
|
|          S  S S   S   S S  S  S  S S S S +S   S  E
|-------------3---------3-------3----0----------0-------||
|-------------------0-----0--------------0-(0)-----0----||
|---------------0------------0---------0----------------||
|-------------------------------------------------------||
|-------------------------------------------------------||
|----------3-----------------------0--------------------||


 Verse 2
  D                   C             G           Em
   S  S  E  +H.                     W
|---------------------------------|---------------------------|
|-10h12p10-(10)-------------------|---------------------------|
|---------------------------------|---------------------------|
|---------------------------------|---------------------------|
|---------------------------------|---------------------------|
|---------------------------------|---------------------------|
|
|  E     E   S  S S S E E S S S S   E E S S S S E E S S S S
|--2-----2---2--2-2-x-0-0-0-0-0-x-|-3-3-3-3-3-x-0-0-0-0-0-x---|
|--3-----3---3--3-3-x-1-1-1-1-1-x-|-0-0-0-0-0-x-0-0-0-0-0-x---|
|--2-----2---2--2-2-x-0-0-0-0-0-x-|-0-0-0-0-0-x-0-0-0-0-0-x---|
|--0-----0---0--0-0-x-2-2-2-2-2-x-|-0-0-0-0-0-x-2-2-2-2-2-x---|
|---------------------3-3-3-3-3-x-|-2-2-2-2-2-x-2-2-2-2-2-x---|
|---------------------------------|-3-3-3-3-3-x-0-0-0-0-0-x---|


    D           C             G           Em
    Gtr III
    E E S S S S E E S S S S   E E S S S S E E S S S S  3x
||--2-2-2-2-2-x-0-0-0-0-0-x-|-3-3-3-3-3-x-0-0-0-0-0-x--||
||o-3-3-3-3-3-x-1-1-1-1-1-x-|-0-0-0-0-0-x-0-0-0-0-0-x-o||
||--2-2-2-2-2-x-0-0-0-0-0-x-|-0-0-0-0-0-x-0-0-0-0-0-x--||
||--0-0-0-0-0-x-2-2-2-2-2-x-|-0-0-0-0-0-x-2-2-2-2-2-x--||
||o-------------3-3-3-3-3-x-|-2-2-2-2-2-x-2-2-2-2-2-x-o||
||--------------------------|-3-3-3-3-3-x-0-0-0-0-0-x--||


 Pre-Chorus 2
  Bm    Bsus2   Bm    Bsus2      F#m    G            Em          A7sus4
  Q  Q  Q  Q    Q  Q  Q  S S E   Q  E E E. S S S E   E S S S S E e Q.
|-2--2--2--2--|-2--2--2--2-2-2-|-2--2-2-3--3-3-3-3-|-0-0-0-0-0-0---------||
|-3--3--2--2--|-3--3--2--2-2-2-|-2--2-2-0--0-0-0-0-|-0-0-0-0-0-0-3-3-----||
|-4--4--4--4--|-4--4--4--4-4-4-|-2--2-2-0--0-0-0-0-|-0-0-0-0-0-0-0-0-----||
|-4--4--4--4--|-4--4--4--4-4-4-|-4--4-4-0--0-0-0-0-|-2-2-2-2-2-2-2-2-----||
|-2--2--2--2--|-2--2--2--2-2-2-|-4--4-4-2--2-2-2-2-|-2-2-2-2-2-2-0-0-----||
|-------------|----------------|-2--2-2-3--3-3-3-3-|-0-0-0-0-0-0---------||


 Chorus
  D                   C
  Gtr I
   E  E  S  S  E    E  E  S  S  E
|-17-17-17-15-14---15-15-15-17-15---|
|-----------------------------------|
|-----------------------------------|
|-----------------------------------|
|-----------------------------------|
|-----------------------------------|
|
| Gtr III
|  E  E  S  S  S S  E  E  S  S  S S
|--2--2--2--2--2-x--0--0--0--0--0-x-|
|--3--3--3--3--3-x--1--1--1--1--1-x-|
|--2--2--2--2--2-x--0--0--0--0--0-x-|
|--0--0--0--0--0-x--2--2--2--2--2-x-|
|-------------------3--3--3--3--3-x-|
|-----------------------------------|


  G                            Em            D                C
                      ~~~
   S      +E     +S   H.                      E  E  S  S  E    E  E  S  S  E
|------------------------------------------|-17-17-17-15-14---15-15-15-17-15----|
|-17b19==(17)r==(17)-15--------------------|------------------------------------|
|------------------------------------------|------------------------------------|
|------------------------------------------|------------------------------------|
|------------------------------------------|------------------------------------|
|------------------------------------------|------------------------------------|
|
|  E          E       S  S S S E E S S S S    E  E  S  S  S S  E  E  S  S  S S
|--3----------3-------3--3-3-x-0-0-0-0-0-x-|--2--2--2--2--2-x--0--0--0--0--0-x--|
|--0----------0-------0--0-0-x-0-0-0-0-0-x-|--3--3--3--3--3-x--1--1--1--1--1-x--|
|--0----------0-------0--0-0-x-0-0-0-0-0-x-|--2--2--2--2--2-x--0--0--0--0--0-x--|
|--0----------0-------0--0-0-x-2-2-2-2-2-x-|--0--0--0--0--0-x--2--2--2--2--2-x--|
|--2----------2-------2--2-2-x-2-2-2-2-2-x-|-------------------3--3--3--3--3-x--|
|--3----------3-------3--3-3-x-0-0-0-0-0-x-|------------------------------------|


                                                Guitar Solo
         G                      Em               D             C
                                 ~~~                           ~
   a      +E.    +S   e    S  S  Q.       E      Q   S S E   a Q   S S S  S
|---------------------------------------------||----------------------------|
|-17b19==(17)r==(17)-15---12h15p12------------||---------------------7-8-10-|
|---------------------------------------------||---------7---7h9---9--------|
|---------------------------------------------||-7---7-9--------------------|
|---------------------------------------------||----------------------------|
|---------------------------------------------||----------------------------|
|
|          E  E       S S  S  S  E  E S S S S    E E S S S S   E E S S S  S
|----------3--3-------3-3--3--x--0--0-0-0-0-x-||-2-2-2-2-2-x---0-0-0-0-0--x-|
|----------0--0-------0-0--0--x--0--0-0-0-0-x-||-3-3-3-3-3-x---1-1-1-1-1--x-|
|----------0--0-------0-0--0--x--0--0-0-0-0-x-||-2-2-2-2-2-x---0-0-0-0-0--x-|
|----------0--0-------0-0--0--x--2--2-2-2-2-x-||-0-0-0-0-0-x---2-2-2-2-2--x-|
|----------2--2-------2-2--2--x--2--2-2-2-2-x-||---------------3-3-3-3-3--x-|
|----------3--3-------3-3--3--x--0--0-0-0-0-x-||----------------------------|

[ Tab from: http://www.guitaretab.com/b/bob-seger/44230.html ]
        G                          Em
          ~~~~                                            ~~~
   a     +H             a      +S   +S  S S S S  S a     +S
|------------------------------------------------------------|
|-10b12-(10)-----------10b12==(10)r(10)-8p7-----10-----------|
|-------------------------------------------9p7----9b11==(9)-|
|------------------------------------------------------------|
|------------------------------------------------------------|
|------------------------------------------------------------|
|
|         E  E S S S S          E       E   S S  S        S
|---------3--3-3-3-3-x----------0-------0---0-0--0--------x--|
|---------0--0-0-0-0-x----------0-------0---0-0--0--------x--|
|---------0--0-0-0-0-x----------0-------0---0-0--0--------x--|
|---------0--0-0-0-0-x----------2-------2---2-2--2--------x--|
|---------2--2-2-2-2-x----------2-------2---2-2--2--------x--|
|---------3--3-3-3-3-x----------0-------0---0-0--0--------x--|


  D                           C
   ~~~                        ~~
                   |---3----|
  +Q.       a     +S  +S    S Q.       a     +S  +S
|----------------------------------------------------|
|----------------------------------------------------|
|-(9)-------9b11==(9)r(9)---7-9--------9b11==(9)r(9)-|
|----------------------------------------------------|
|----------------------------------------------------|
|----------------------------------------------------|
|
|  E  E S S        S      S   E  E S S        S   S
|--2--2-2-2--------2------x---0--0-0-0--------0---x--|
|--3--3-3-3--------3------x---1--1-1-1--------1---x--|
|--2--2-2-2--------2------x---0--0-0-0--------0---x--|
|--0--0-0-0--------0------x---2--2-2-2--------2---x--|
|-----------------------------3--3-3-3--------3---x--|
|----------------------------------------------------|


  G             Em                D           C
      ~
  S S Q     S S s S S S S S S S   Q   S S S S Q   S S S S
|-------------------------------|--------------------------|
|-------------------------------|--------------------------|
|-----7---------7---------------|---------------------7-9--|
|-7h9-------7h9-------7---------|---------7-------7s9------|
|-----------------7h9---9s7-5---|-5---7h9---9s7------------|
|-----------------------------7-|--------------------------|
|
| E   E S S S S E   E   S S S S   E E S S S S E E S S S S
|-3---3-3-3-3-x-0---0---0-0-0-x-|-2-2-2-2-2-x-0-0-0-0-0-x--|
|-0---0-0-0-0-x-0---0---0-0-0-x-|-3-3-3-3-3-x-1-1-1-1-1-x--|
|-0---0-0-0-0-x-0---0---0-0-0-x-|-2-2-2-2-2-x-0-0-0-0-0-x--|
|-0---0-0-0-0-x-2---2---2-2-2-x-|-0-0-0-0-0-x-2-2-2-2-2-x--|
|-2---2-2-2-2-x-2---2---2-2-2-x-|-------------3-3-3-3-3-x--|
|-3---3-3-3-3-x-0---0---0-0-0-x-|--------------------------|


  a Q.       E   S S S S S S S S
|--------------------------------|
|------------7---8p7---7---------|
|--------------------9---9p7-----|
|-7h9------------------------7h9-|
|--------------------------------|
|--------------------------------|
|
|   E  E S S S S E   E   S S S S
|---3--3-3-3-3-x-0---0---0-0-0-x-|
|---0--0-0-0-0-x-0---0---0-0-0-x-|
|---0--0-0-0-0-x-0---0---0-0-0-x-|
|---0--0-0-0-0-x-2---2---2-2-2-x-|
|---2--2-2-2-2-x-2---2---2-2-2-x-|
|---3--3-3-3-3-x-0---0---0-0-0-x-|


                                                ~~                   ~
  Q    a     +Q         Q    a     +Q           Q   S  S S S S S S S Q
|---------------------------10b12-(10)-------|-10---7-------------------------||
|-----10b12-(10)-------10--------------------|--------10p7--------------------||
|--------------------------------------------|-------------9s7---7s9-7--------||
|-7------------------------------------------|-----------------9--------------||
|--------------------------------------------|--------------------------------||
|--------------------------------------------|--------------------------------||
|
| E E         S  S S S  E E         S  S S S    E E S  S S S E   E   S S S S
|-2-2---------2--2-2-x--0-0---------0--0-0-x-|--3-3-3--3-3-x-0---0---0-0-0-x--||
|-3-3---------3--3-3-x--1-1---------1--1-1-x-|--0-0-0--0-0-x-0---0---0-0-0-x--||
|-2-2---------2--2-2-x--0-0---------0--0-0-x-|--0-0-0--0-0-x-0---0---0-0-0-x--||
|-0-0---------0--0-0-x--2-2---------2--2-2-x-|--0-0-0--0-0-x-2---2---2-2-2-x--||
|-----------------------3-3---------3--3-3-x-|--2-2-2--2-2-x-2---2---2-2-2-x--||
|--------------------------------------------|--3-3-3--3-3-x-0---0---0-0-0-x--||


 Pre-Chorus 3
  Bm    Bsus2   Bm    Bsus2      F#m    G            Em          A7sus4
  Gtr III
  Q  Q  Q  Q    Q  Q  Q  S S E   Q  E E E. S S S E   E S S S S E e Q.
|-2--2--2--2--|-2--2--2--2-2-2-|-2--2-2-3--3-3-3-3-|-0-0-0-0-0-0---------||
|-3--3--2--2--|-3--3--2--2-2-2-|-2--2-2-0--0-0-0-0-|-0-0-0-0-0-0-3-3-----||
|-4--4--4--4--|-4--4--4--4-4-4-|-2--2-2-0--0-0-0-0-|-0-0-0-0-0-0-0-0-----||
|-4--4--4--4--|-4--4--4--4-4-4-|-4--4-4-0--0-0-0-0-|-2-2-2-2-2-2-2-2-----||
|-2--2--2--2--|-2--2--2--2-2-2-|-4--4-4-2--2-2-2-2-|-2-2-2-2-2-2-0-0-----||
|-------------|----------------|-2--2-2-3--3-3-3-3-|-0-0-0-0-0-0---------||


 Outro
  D               Am
  Gtr I
   ~~~             ~~~
   Q.        S  S  Q.        S  S
|-17--------15-17-15--------14-15-|
|---------------------------------|
|---------------------------------|
|---------------------------------|
|---------------------------------|
|---------------------------------|
|
| Gtr III
|  E. S S S  S  S  E  E S S  S  S
|--2--2-2-2--2--x--0--0-0-0--0--x-|
|--3--3-3-3--3--x--1--1-1-1--1--x-|
|--2--2-2-2--2--x--2--2-2-2--2--x-|
|--0--0-0-0--0--x--2--2-2-2--2--x-|
|------------------0--0-0-0--0--x-|
|---------------------------------|


  D               Am              D               Am
   ~~~             ~~~             ~~~             ~~~
   Q.        S  S  Q.       E      Q.        S  S  Q.        S  S
|-14--------12h14p12------------|-17--------15-17-15--------14-15-|
|-------------------------------|---------------------------------|
|-------------------------------|---------------------------------|
|-------------------------------|---------------------------------|
|-------------------------------|---------------------------------|
|-------------------------------|---------------------------------|
|
|  E. S S S  S  S  E  E S S S S    E. S S S  S  S  E  E S S  S  S
|--2--2-2-2--2--x--0--0-0-0-0-x-|--2--2-2-2--2--x--0--0-0-0--0--x-|
|--3--3-3-3--3--x--1--1-1-1-1-x-|--3--3-3-3--3--x--1--1-1-1--1--x-|
|--2--2-2-2--2--x--2--2-2-2-2-x-|--2--2-2-2--2--x--2--2-2-2--2--x-|
|--0--0-0-0--0--x--2--2-2-2-2-x-|--0--0-0-0--0--x--2--2-2-2--2--x-|
|------------------0--0-0-0-0-x-|------------------0--0-0-0--0--x-|
|-------------------------------|---------------------------------|


  D               Am                 D               Am
   ~~~                                ~~~             ~~~
   Q.        S  S  S  S  Q     E      Q.        S  S  Q.        S  S
|-14--------12-14-12s10------------|-17--------15-17-15--------14-15-|
|-----------------------13---------|---------------------------------|
|----------------------------------|---------------------------------|
|----------------------------------|---------------------------------|
|----------------------------------|---------------------------------|
|----------------------------------|---------------------------------|
|
|  E. S S S  S  S  E     E S S S S    E. S S S  S  S  E  E S S  S  S
|--2--2-2-2--2--x--0-----0-0-0-0-x-|--2--2-2-2--2--x--0--0-0-0--0--x-|
|--3--3-3-3--3--x--1-----1-1-1-1-x-|--3--3-3-3--3--x--1--1-1-1--1--x-|
|--2--2-2-2--2--x--2-----2-2-2-2-x-|--2--2-2-2--2--x--2--2-2-2--2--x-|
|--0--0-0-0--0--x--2-----2-2-2-2-x-|--0--0-0-0--0--x--2--2-2-2--2--x-|
|------------------0-----0-0-0-0-x-|------------------0--0-0-0--0--x-|
|----------------------------------|---------------------------------|


  D               Am
   ~~~             ~~         ~~
   Q.        S  S  Q    S  S  E
|-14--------12h14p12---10h12p10-----|
|-----------------------------------|
|-----------------------------------|
|-----------------------------------|
|-----------------------------------|
|-----------------------------------|
|
|  E. S S S  S  S  E E  S  S  S S
|--2--2-2-2--2--x--0-0--0--0--0-x---|
|--3--3-3-3--3--x--1-1--1--1--1-x---|
|--2--2-2-2--2--x--2-2--2--2--2-x---|
|--0--0-0-0--0--x--2-2--2--2--2-x---|
|------------------0-0--0--0--0-x---|
|-----------------------------------|


  D                Am
    ~~~~            ~~~
   +Q    E    S  S  Q.        S  S
|-(10)-------15h17-15--------14-15-|
|----------------------------------|
|----------------------------------|
|----------------------------------|
|----------------------------------|
|----------------------------------|
|
|   E. S S S  S  S  E  E S S  S  S
|---2--2-2-2--2--x--0--0-0-0--0--x-|
|---3--3-3-3--3--x--1--1-1-1--1--x-|
|---2--2-2-2--2--x--2--2-2-2--2--x-|
|---0--0-0-0--0--x--2--2-2-2--2--x-|
|-------------------0--0-0-0--0--x-|
|----------------------------------|


  D                           Am                        D             Am
                                                         ~~~
   S   S  a     +Q        E    S  S  S  S  S  S  S  S    H            H
|-14--15-15b17-(15)-----------15p14-14p12-12s10-10----|---------------------------|
|--------------------------------------------------12p|=10------------------------|
|-----------------------------------------------------|---------------------------|
|-----------------------------------------------------|---------------------------|
|-----------------------------------------------------|---------------------------|
|-----------------------------------------------------|---------------------------|
|
|  E.               S S S S S  E     E     S  S  S  S    E. S S S S S E E S S S S
|--2----------------2-2-2-2-x--0-----0-----0--0--0--x-|--2--2-2-2-2-x-0-0-0-0-0-x-|
|--3----------------3-3-3-3-x--1-----1-----1--1--1--x-|--3--3-3-3-3-x-1-1-1-1-1-x-|
|--2----------------2-2-2-2-x--2-----2-----2--2--2--x-|--2--2-2-2-2-x-2-2-2-2-2-x-|
|--0----------------0-0-0-0-x--2-----2-----2--2--2--x-|--0--0-0-0-0-x-2-2-2-2-2-x-|
|------------------------------0-----0-----0--0--0--x-|---------------0-0-0-0-0-x-|
|-----------------------------------------------------|---------------------------|


  D            Am               D            Am
                                ~~
  Q    E   E   Q.       a E     Q.       S S Q.       S S
|-----------------------------|---------------------------|
|-----------------------------|-----------------------5s7-|
|----------7---5--------5h7---|-7--------7s9-9------------|
|-----------------------------|---------------------------|
|-----------------------------|---------------------------|
|-----------------------------|---------------------------|
|
| E. S S S S S E  E S S   S S   E. S S S S S E  E S S S S
|-2--2-2-2-2-x-0--0-0-0---0-x-|-2--2-2-2-2-x-0--0-0-0-0-x-|
|-3--3-3-3-3-x-1--1-1-1---1-x-|-3--3-3-3-3-x-1--1-1-1-1-x-|
|-2--2-2-2-2-x-2--2-2-2---2-x-|-2--2-2-2-2-x-2--2-2-2-2-x-|
|-0--0-0-0-0-x-2--2-2-2---2-x-|-0--0-0-0-0-x-2--2-2-2-2-x-|
|--------------0--0-0-0---0-x-|--------------0--0-0-0-0-x-|
|-----------------------------|---------------------------|


  D            Am
  ~~
  Q    S S S S  E  Q     E
|------------------------------|
|-7----7h8-8-7-10s12-----x-----|
|------------------------------|
|------------------------------|
|------------------------------|
|------------------------------|
|
| E. S S S S S  E  E S S S S
|-2--2-2-2-2-x--0--0-0-0-0-x---|
|-3--3-3-3-3-x--1--1-1-1-1-x---|
|-2--2-2-2-2-x--2--2-2-2-2-x---|
|-0--0-0-0-0-x--2--2-2-2-2-x---|
|---------------0--0-0-0-0-x---|
|------------------------------|


  C               G                    D
   Q      S  S  E Q      S     +E.      Q      S S S S H
|------------------------------------|---------------------------*|
|-13-----13-12-10-8-----10b12-(10)---|-10-----10p8p7h8p7---------*|
|------------------------------------|---------------------------*|
|------------------------------------|---------------------------*|
|------------------------------------|---------------------------*|
|------------------------------------|---------------------------*|
|
|  E S S  S  S  E E S S  S      S  E    E S S  S S E   S E. +Q
|--0-0-0--0--0--0-3-3-3--3------3--3-|--2-2-2--2---0---0h2--(2)--*|
|--1-1-1--1--1--1-0-0-0--0------0--0-|--3-3-3--3-------3---------*|
|--0-0-0--0--0--0-0-0-0--0------0--0-|--2-2-2--2-------2---------*|
|--2-2-2--2--2--2-0-0-0--0------0--0-|--0-0-0--0-0-----0---------*|
|--3-3-3--3--3--3-2-2-2--2------2--2-|---------------------------*|
|-----------------3-3-3--3------3--3-|---------------------------*|


Duration Legend
---------------
W - whole; H - half; Q - quarter; E - 8th; S - 16th; T - 32nd; X - 64th; a - acciaccatura
+ - note tied to previous; . - note dotted; .. - note double dotted
Uncapitalized letters represent notes that are staccato (1/2 duration)
Irregular groupings are notated above the duration line
Duration letters will always appear directly above the note/fret number it represents the
duration for.  Duration letters with no fret number below them represent rests.  Multi-
bar rests are notated in the form Wxn, where n is the number of bars to rest for.  Low
melody durations appear below the staff

Tablature Legend
----------------
 h   - hammer-on
 p   - pull-off
 b   - bend
 pb  - pre-bend
 r   - bend release (if no number after the r, then release immediately)
 /\  - slide into or out of (from/to "nowhere")
 s   - legato slide
 S   - shift slide
  - natural harmonic
[n]  - artificial harmonic
n(n) - tapped harmonic
 ~   - vibrato
 tr  - trill
 T   - tap
 TP  - trem. picking
 PM  - palm muting
\n/  - tremolo bar dip; n = amount to dip
 \n  - tremolo bar down
 n/  - tremolo bar up
/n\  - tremolo bar inverted dip
 =   - hold bend; also acts as connecting device for hammers/pulls
 <>  - volume swell (louder/softer)
 x   - on rhythm slash represents muted slash
 o   - on rhythm slash represents single note slash

Misc Legend
-----------
 |  - bar
||  - double bar
||o - repeat start
o|| - repeat end
*|  - double bar (ending)
 :  - bar (freetime)
 $  - Segno
 &  - Coda
Tempo markers -  = BPM(8/16=s8/s16), where s8 = swing 8ths, s16 = swing 16ths
Related for Mainstreet tab
Advertisement will be closed in 10 seconds