Song name
# A B C D E F G H I J K L M N O P Q R S T U V W X Y Z

Bob Seger - Sunspot Baby tab

 i was tryin to find tabs for this song and no one has it so i gues heres the first

  e6 shuffle style type of thing its kind of bluesy. it has three parts youll have to 
to the song to find the changes its pretty simple though
heres the base its in e just a shuffle
e---------------|
b---------------|
g---------------|
d---------------|
a-2-4-2---5-4-5-|
e-0-0-0-0-0-0-0-|
2nd part
e---------------|
b---------------|
g---------------|
d-2-4-2---5-4-5-|
a-0-0-0-0-0-0-0-|
e---------------|
3rd part
e---------------|
b---------------|
g-2-4-2---5-4-5-|
d-0-0-0-0-0-0-0-|
a---------------|
e---------------|
ill tab the lead/solo later for now heres the rhythm
Tap to rate this tab
 
# A B C D E F G H I J K L M N O P Q R S T U V W X Y Z