Song name
# A B C D E F G H I J K L M N O P Q R S T U V W X Y Z

Bob Sinclair - Love Generation tab

CAPO 1

intro:
   C   Em  F
e|-0-|-0-|-1-|
b|-1-|-0-|-1-|
g|-0-|-0-|-2-|
d|-2-|-2-|-3-|
a|-3-|-2-|-3-|
E|-0-|-0-|-1-|

melody of whistling with capo 1:
e|----------------------------------------------------|
b|---5----------------------5--(5)--------------------|
g|-5---5-------5-4-5--7-5-4---4---4------7--7-5-7-5-7-|
d|----------------------------------------------------|
a|----------------------------------------------------|
E|----------------------------------------------------| repeat when needed

harmony with capo 1:
e|---------------------------------|
b|---------------------------------|
g|---------------------------------|
d|-------2-------2-------2-------2-|
a|-3-5-5---3-5-5---2-5-5-----5-5---|
E|-------------------------3-------| repeat thruout after 2 chrd successions


verse 1:
C
From Jamaica to the world
           Em              F
It's just love, It's just love,

C
Why most the children play in the street?
Em                          F
Broken arms can fade the dreams
C
Peace on earth to everyone that you meet
Em                                F
Don't you worry, It could be so sweet

C
Just look to the rainbow you will see,
Em                           F
The sun will shine 'till eternity
C
I've got so much love in my heart
Em                          F
No one can tear it apart

chorus
C
Feel the love generation
Em                          F
Feel the love generation
C                            
Come on, come on, come on,
Em                          F
Feel the Love Generation
C
Feel the Love Generation
Em                          F
Don't worry about a thing, gonna be all right

verse 2:
C
Why most the children play in the street?
Em                          F
Broken hearts, faded the dreams
C
Peace on earth to everyone that you meet
Em                            F
Don't you worry, It could be so sweet

C
Just look to the rainbow you will see,
Em                          F
The sun will shine 'till eternity
C
I've got so much love in my heart
Em                          F
No one can tear it apart
Tap to rate this tab
 
# A B C D E F G H I J K L M N O P Q R S T U V W X Y Z