Guitaretab - guitar tabs
Song name
# A B C D E F G H I J K L M N O P Q R S T U V W X Y Z

Bob Sinclar - Love Generation tab

-------------------------------------------------------------------------------
			     'LOVE GENERATION' - Bob Sinclar/Sinclair
-------------------------------------------------------------------------------
Tabbed by: Sebastian Ar.
Email MSN: playing.the.angel_@hotmail.com
Country: Argentina, Buenos Aires
Data: 2008, January.
Tuning: EADGBe, Standard.
Difficulty: Novice

I think this song originally uses a Capo on the 1st fret, but in this case we won't:

Main Riff/Chords:
e|-x---------------------------------------------------------------|
B|-6--6-6-x--6--x--6-6--6-6--6---------------1--1-1----------------|
G|-6--6-6-x--6--x--6-6--6-6--6---------------1--1-1-x---1-1--1-1---|
D|-6--6-6-x--6--x--6-6--6-6--6---------------3--3-3-x---3-3--3-3---|
A|(4)----------------------------------------3--3-3-x---3-3--3-3---|
E|-x-----------------------------------------1--1-1----------------|

e|-----------------------|
B|-2--2--2--2--2-2-2-----|
G|-3--3--3--3--3-3-3-----|
D|-4--4--4--4--4-4-4-----|
A|-x---------------------|
E|-4--4--4--4--4-4-4-----|
[ Tab from: http://www.guitaretab.com/b/bob-sinclar/64917.html ]
Solo/Whispering Thing:
e|---------------------------------------------------|
B|-------6------------4-----6------------6-------9---|
G|-6-x-6---6-x--6-5-6---6-5--------5-x-5---5-x-------|
D|---------------------------------------------------|
A|---------------------------------------------------|
E|---------------------------------------------------|


LYRIC:
"From Jamaica to the world,
It's just love,
it's just love,
Yeah!

Why must the children play in the streets,
broken hearts and faded dreams,
peace and love to everyone that you meet,
don't you worry, it could be so sweet,
Just look to the rainbow, you will see
the sun will shine till eternity,
I've got so much love in my heart,
No-one can tear it apart,
Yeah,

Feel the love generation,
Yeah, yeah, yeah, yeah,
Feel the love generation,
C'mon c'mon c'mon c'mon yeah (2x)

Don't worry about a thing,
gonna be alright.(3x)
Gonna be, gonna, gonna, gonna be alright,

Why must the children play in the streets,
broken hearts and faded dreams,
peace and love to everyone that you meet,
don't you worry, it could be so sweet,
Just look to the rainbow, you will see
the sun will shine till eternity,
I've got so much love in my heart,
No-one can tear it apart,
Yeah"

| /  slide up
| \  slide down
| h  hammer-on
| p  pull-off
| ~  vibrato
| +  harmonic
| x  Mute note
===============================================================================
Related for Love Generation tab
Advertisement will be closed in 10 seconds