Song name
# A B C D E F G H I J K L M N O P Q R S T U V W X Y Z

Bob Sinclar - Give A Lil Love tab

I was looking for a good tab for this song and looking at all those, in my opinion, not 
good tabs, I figured out a way to play it that seems pretty close to the the actual 
Hope you like it.

All the song you play: Fmaj7 C (listen to catch the rhythm)

There are those little riffs in the beginning of the music when the dude is singing "oh 
and I think that you can play it this way:

--------------------------|
--------------------------|
-----0--------0-----------|
---2--------0-------------|
-3------3-2-----2---------|
--------------------------|


---------------------------| 3X when the guy is saying oh oh :)
---------------------------|
-----0------0--------------|
---2------0----------------|
-3------2------------------|
---------------------------|
Tap to rate this tab
# A B C D E F G H I J K L M N O P Q R S T U V W X Y Z