Song name
# A B C D E F G H I J K L M N O P Q R S T U V W X Y Z

Bob - Airplanes tab

No Capo
Simple

Verse/Chorus/Whole Song
e-9----5----5--------|
B-9----5----5--------|
G-11---7----5--------|
D-11---7----7--------|
A-9----5----7--------|
E-x----x----5--------|

Quick Change after the 3 chords above 
e-5----4----2--------|
B-5----4----2--------|
G-5----4----2--------|
D-7----6----4--------|
A-7----6----4--------|
E-5----4----2--------| 
Tap to rate this tab
 
# A B C D E F G H I J K L M N O P Q R S T U V W X Y Z