Song name
# A B C D E F G H I J K L M N O P Q R S T U V W X Y Z

Bob - Nothing On You tab

Song: Nothing on you
Artist:B. O. B. ft. Bruno Mars
Tabbed by: irene leah "yen" duldulao
 for comments...reactions..suggestions..e-mail me @ ivd11@yahoo.com
oh!..got this tab in youtube..

v-down stroke    ()-optional           ~-let it ring
/\-up stroke     x-dead string or tap

         e|---------------------------------------------------------------|
         B|------6-----------------6-------------------------4------------|
         G|----8----8---8--------7----7---7--------------5--------5-----5-|
         D|--8--------8--------7--------7-----------5----------------5----|
         A|6-----------------5-------------------3------------------------|
         E|---------------------------------------------------------------|    
            Ebm              Dm                  Cm 
Beautiful girls all over the world I could be chasing but my time would be 

e|-------------------------------------------------------------------|
B|------------1------------------------6------------------6----------|
G|--------2----------2--------------8-------8-----------7-------7----|
D|----3-----------3-----3--------8--------8---8-------7-------7---7--|
A|3--------------------------6---------------------5-----------------|
E|-------------------------------------------------------------------|
  F                         Ebm                   Dm
wasted They got nothing on y...o...u....baby                Nothing on 

e|-------------------------------------------------|
B|------------4-----------------------1------------|
G|--------5------5---5------------2-------2-----2--|
D|----5------------5----------3--------------3-----|
A|-3----------------------3------------------------|
E|-------------------------------------------------|
  Cm                      F
 y...o...u....baby                   They might say
            
e|---------------------------------------------------------------|
B|------6------------------6------------------------4------------|
G|----8----8---8---------7-----7-------7----------5----5-------5-|
D|--8--------8---------7-----------7------------5----------5-----|
A|6------------------5------------------------3------------------|
E|---------------------------------------------------------------|    
  Ebm               Dm                        Cm 
  hi and I might say hey    But you shouldn't worry about what they

e|-------------------------------------------------------------------|
B|------------1------------------------6------------------6----------|
G|--------2----------2--------------8-------8-----------7-------7----|
D|----3-----------3-----3--------8--------8---8-------7-------7---7--|
A|3--------------------------6---------------------5-----------------|
E|-------------------------------------------------------------------|
  F                          Ebm                   Dm
say Cos they got nothing on  y....o....u...baby            Nothing on 

e|------------------------1~-|
B|------------4-----------1~-|
G|--------5------5---5----2~-|
D|----5------------5------3~-|
A|-3----------------------3~-|
E|---------------------------|
  Cm                      F
 y...o...u....baby                  


ok.. the next parts of the song will be strummed ...
these are the chords used in the remaining parts of the song:
             Ebm                            Dm7
   v  /\    v  /\ v   /\  v  /\     v  /\    v  /\ v   /\  v  /\ 
e|-6--6--x--6--6--6--(6)-(6)-(6)-||-5--5--x--5--5--5--(5)-(5)-(5)-|
B|-6--6--x--6--6--6--(6)-(6)-(6)-||-6--6--x--6--6--6--(6)-(6)93-(6)-|
G|-8--8--x--8--8--8--(8)-(8)-(8)-||-5--5--x--5--5--5--(5)-(5)-(5)-|
D|-8--8--x--8--8--8--(8)-(8)-(8)-||-7--7--x--7--7--7--(7)-(7)-(7)-|
A|-6--6--x--6--6--6--(6)-(6)-(6)-||-5--5--x--5--5--5--(5)-(5)-(5)-|
E|-------------------------------||-------------------------------|
                                             

             Cm7                            F
   v  /\    v  /\ v   /\  v  /\     v  /\    v  /\ v   /\  v  /\ 
e|-3--3--x--3--3--3--(3)-(3)-(3)-||-1--1--x--1--1--1--(1)-(1)-(1)-|
B|-4--4--x--4--4--4--(4)-(4)-(4)-||-1--1--x--1--1--1--(1)-(1)-(1)-|
G|-3--3--x--3--3--3--(3)-(3)-(3)-||-2--2--x--2--2--2--(2)-(2)-(2)-|
D|-5--5--x--5--5--5--(5)-(5)-(5)-||-3--3--x--3--3--3--(3)-(3)-(3)-|
A|-3--3--x--3--3--3--(3)-(3)-(3)-||-3--3--x--3--3--3--(3)-(3)-(3)-|
E|-------------------------------||-------------------------------|



please rate..and enjoy!! XD
Tap to rate this tab
# A B C D E F G H I J K L M N O P Q R S T U V W X Y Z