Song name
# A B C D E F G H I J K L M N O P Q R S T U V W X Y Z

Bob - Airplanes tab

Its my first tab and a little confusing but hopefully ull understand it and learn this song.

{ / = Slide Up }

E-2----------------------2------5-4-2---2-5--4---]
B---2----2--2----3----2----2---2-----------------]>
G-------2--2----2----2-------2--------2-----2--2-]>> It splits off into 2
D-4---4---4----4----2----4--4---4----4-----------]>> different parts (1&2)
A-------------5----0----------------5-----0------]>
E------------------------------------------------]

Part 1 and 2 should take the same amount of time to play(ex: pt 2 is normal speed)

Part 1- is faster

D-9-9-9-9-9-9-9-9-7-5-5-5/12-12-12-12-12-9-9-9-9-9-9-9-99-7-5-5-5/12-12-12-07
Repeat x6^^

A------------0--0-----------------|
e-5-5-4-4-2-0--2--5-5-7-7-9-9-7-5-| x1

Part 2- is played slower then pt 1

E-----------------|R     ----------------------------------4----|
B-----------------|e     -------------0-----------------0-------|
G-------7-------7-|p     -4--------0--------4--------0----------|  x3
D-11-11-6-11-11-6-|e     ---2--------2--------2-------2---------|
A-10-10-5-10-10-5-|a     ----5--------5-5------5-------5--5-5---|
E--9-10----9------|t x1  -----0-0-0-------0-----0-0-0-----------|


Part 1

E-2---------|
B-4--5------|
G-4--7-7----|   x8
D----7-7----|
A------5----|
e-----------|


Part 2

E---------R     --------------------------------------------------------------|
B---------e     --------------------------------------------------------------|
G-------7-p     --------------------------------------------------------------|
D-11-11-6-e  x1 -111111-14-14-13-1311-9-11-4--6---7-7-7-10101111-14-14-12--10-|
A-10-10-5-a     --------------------------------------------------------------|
e--9-10---t     --9-9-9---12-12-11-11-9-7--9-2--4-4-4-4-7--7--9--9--11-1--9-7-|

E-------------------------------------------------------------------------|
B-9-9---9----9----9---9-9-5-5---5----5-0--0---0-0-9-9---9----9----9---9-9-|
G----7------------------------7----------------------7--------------------|
D-------9----9----9-----9-------9-------9------9--------9----9----9-----9-|
A-------------------------------------------------------------------------|
e-------------------------------------------------------------------------|
                                                ^
E--------------------4-4-4-|                     |
B-5-5---5----5-0--0-0------|     Repeat this and |
G----7---------------------|                    that x2
D-----9--------------------|
A--------------------------|
e--------------------------|

Part 1 cont...
sorry for breakin the parts up into diff sections*

A------------0----0---55557777999--7-5-|Reapeat x2
e-55554444220---22---------------------|


E-2-----5-------|r
B-4--5--7-------|e
G-4--7--7-p-----|    x4
D----7----------|e
A---------------|a
e---------------|t

Part 2

E---------R ---------------------------------------------------------------|
B---------e -9-9-9---12-12-11-11-9-7--9--2--4------------------------------|
G-------7-p ----------------------------------4-4-4-7--7--9--9--11-11--9-7-|
D-11-11-6-e -111111-14-14-13-1311-9-11-4--6--------------------------------|
A-10-10-5-a ----------------------------------7-7-7-10101111-14-14-12-10---|
e--9-10---t ---------------------------------------------------------------|

i hope u enjoy it
Tap to rate this tab
# A B C D E F G H I J K L M N O P Q R S T U V W X Y Z