Song name
# A B C D E F G H I J K L M N O P Q R S T U V W X Y Z

Bob - Ill Be In The Sky tab

Song: I'll Be In The Sky
Artist: B.o.B

Tabbed by Christ12

This is what the piano play.
It is almost the same through the entire song.


   Bm              E                A
|--2-------------|--0-------------|--0-------------|----------------|
|--3-------------|--0-------------|--2-------------|----------------|
|--4-------------|--1-------------|--2-------------|----------------|
|--4-------0h2h4-|--2-------------|--2-------------|-4--2--0--2-----|
|--2--2--2-------|--2-------------|--0--0--0-0h2h4-|------------2---|
|----------------|--0--0----------|----------------|----------------|

   Bm              E                A
|--2-------------|--0-------------|--0-------------|----------------|
|--3-------------|--0-------------|--2-------------|----------------|
|--4-------------|--1-------------|--2-------------|----------------|
|--4-------------|--2-------------|--2-------------|-4--2--0--2-----|
|--2--2----------|--2-------------|--0--0--0-0h2h4-|------------2---|
|----------------|--0--0----------|----------------|----------------|

Tap to rate this tab
 
# A B C D E F G H I J K L M N O P Q R S T U V W X Y Z