Song name
# A B C D E F G H I J K L M N O P Q R S T U V W X Y Z

Bob - The Kids tab

Figured that its a funky song so the tab was pretty easy to find if I listened to 
it a few times :D
So easy to learn!!

For The Verses

E|------------------------------------------------------|
B|------------------------------------------------------|
G|------------------------------------------------------|
D|------------------------------------------------------|
A|-3-3-3---5-5-5--------------------------------3-3-3---|
E|------------------1-1-1------1-1-1---3-3-3------------|


For The Chorus


E|------------------------------------------------------|
B|-5-5-5---7-7-7------------------------------5-5-5-----|
G|-----------------3-3-3------3-3-3---5-5-5-------------|
D|------------------------------------------------------|
A|------------------------------------------------------|
E|------------------------------------------------------|


Have Fun Get Carayyzayyyy :D
Tap to rate this tab
 
# A B C D E F G H I J K L M N O P Q R S T U V W X Y Z