Guitaretab - guitar tabs
Song name
# A B C D E F G H I J K L M N O P Q R S T U V W X Y Z

Bob - Airplanes tab

-----------------------------------------------------------------
AIRPLANES (feat. Haley Williams) - b.o.b
-----------------------------------------------------------------
Tabbed by: Frank Truei
Email: Brokensword421@hotmail.com

Tuning: Standard (EADGBe)  

CAPO: 2nd fret
INTRO: (0:00 - 0:10)
e|0-------------------------------0-----------3-2-0-----0-3--2---|
B|--------0-----0-1-----1-3-----0---------0-----------1----------|
G|------0-----0-------0-------0---------0---0-------0------------|
D|----2-----2-------2-------0---------2--------------------------|
A|--2-------------3-----------------2-------------3--------------|
E|0-----------------------3-------0-----------------------3------|
  ^Keep the bassnotes on E ringing
^This part also plays in the background of all the choruses except the first one

FIRST OPENING CHORUS
GUITAR 1
e|-9--9--9--9--9--9--9--9|\10-10-10-10-/3-3-3-3|
B|10-10-10-10-10-10-10-10|\10-10-10-10-/3-3-3-3|
G|11-11-11-11-11-11-11-11|\11-11-11-11-/0-0-0-0| x4
D|11-11-11-11-11-11-11-11|\12-12-12-12-/0-0-0-0|
A|-----------------------|---------------------|
E|-----------------------|---------------------|

During the 4th runthrough, the 3300 (G chord) is only played twice

GUITAR 2 (Comes in after guitar 1 repeats 2 times)

e|-----------------------|------------------|
B|------------3---3---3--|-------3-0--------|
G|----------0---0---0----|-----0------------| x2
D|-------2---------------|------------------|
A|-----------------------|------------------|
E|-----------------------|------------------|


VERSE , and everything else from this point onward (except the outro)
[ Tab from: http://www.guitaretab.com/b/bob/231117.html ]
e|-----------------------|------------------|
B|-----------3---3---3---|---------3-0----3-|
G|---------0---0---0-----|-------0------0---|\
D|-------2---------------|------------------| \
A|-----------------------|------------------|  \
E|-----------------------|------------------|   \
                                                 x4
e|-----------------------|------------------|   /
B|------------3---3---3--|-------3-0--------|  /
G|----------0---0---0----|-----0------------| /
D|-------2---------------|------------------|/
A|-----------------------|------------------|
E|-----------------------|------------------|



Right before the choruses, do not play the 4th part (0-3-0)

THE PIANO PART SPREAD AROUND ALL OF THE SONG EXCEPT THE INTRO AND FIRST CHORUS

e|------------------------|---------------------------|
B|------------------------|---------------------------|
G|14-14-13-13-------------|14-14-16-16-18-18--16-14---|
D|------------------------|---------------------------|
A|12-12-11-11-14-14--16---|12-12-14-14-16-16--14-12---|
E|------------12-12--14---|---------------------------|




Sorry if you aren't sure of where that part goes.  To put in specifically where it 
is throughout the whole song would probably confuse more people than help since 
there isn't much of a pattern to its usage.



OUTRO

Random piano part and 

e|-9--9--9--9--9--9--9--9|10-10-10-10-3-3-3-3|
B|10-10-10-10-10-10-10-10|10-10-10-10-3-3-3-3|
G|11-11-11-11-11-11-11-11|11-11-11-11-0-0-0-0| 
D|11-11-11-11-11-11-11-11|12-12-12-12-0-0-0-0|
A|-----------------------|-------------------|
E|-----------------------|-------------------|


are played.
Related for Airplanes tab
×
Best way to learn
"Airplanes"