Song name
# A B C D E F G H I J K L M N O P Q R S T U V W X Y Z

Bob - Nothin On You tab

Ok so here are the chords for the whole song.
             A#
beautiful girls all over the world
             A#sus4
i could be chasing but my time would be wasted
                   Dm7
they got nothing on you baby
           F
nothing on you baby

Those chords look like this

A#   A#sus4  Dm7   F             m = Minor otherwise major

E-6  E-6     E-5   E-1-|
B-6  B-6     B-6   B-1-|
G-7  G-7     G-5   G-2-|
D-8  D-8     D-7   D-3-|
A-8  A-6     A-5   A-3-|
E-6  E-6     E-x   E-1-|

Heres the piano part (but on guitar)

E--------------------     -------------------------------------------------|
B--------------------     -------------------------------------------------|
G-10-7-10-7-10-8-7--- x 2 -------------------------------------------------|
D------------------10     -12-12-12-12-12-12-12-12-10-10-10-10-10-10-10-10-|
A--------------------     -------------------------------------------------|
E--------------------     -------------------------------------------------|

Finally Heres the molody or the singing (on guitar)

E--------------------------------------------------------------------------|
B--------------------------------------------------------------------------|
G--------10----------10--------10-7-----------10-7--7-7-7-10-12-14--10-10--|
D-8-10-8----8-8-10-8----8-10-8------88-8-10-8------------------------------|
A--------------------------------------------------------------------------|
E--------------------------------------------------------------------------|

E--------------------------------------------------------------------------|
B--------------------------------------------------------------------------|
G-15-14-12-14--10-10- and repeat ------------------------------------------|
D--------------------------------------------------------------------------|
A--------------------------------------------------------------------------|
E--------------------------------------------------------------------------|

Have fun !:P
Tap to rate this tab
 
# A B C D E F G H I J K L M N O P Q R S T U V W X Y Z