Song name
# A B C D E F G H I J K L M N O P Q R S T U V W X Y Z

Bob - Letters From Vietnam tab

i learned this song a while back but only decided to write a tab for it now.
i dont know the guitar solo in the middle of the song but only the acoustic part.
hopefully this is the most correct version you have seen, but i guess that
you're the judge. enjoy!

C
--3----------0---------0-----3-----0-----3-----|
----1---1------1---1-----1-----1-----1-----1---|
----------0----------0-----2-----2-----2-----2-|
------2----------2-----------2-----------2-----|
--3----------3---------3-----------3-----------|
-----------------------------------------------|

Am
--0---------3----------0-----3-----0-----3-----|
----1---1-----1---1------1-----1-----1-----1---|
----------2----------2-----2-----2-----2-----2-|
------2---------2------------2-----------2-----|
--0---------0----------0-----------0-----------|
-----------------------------------------------|

Fmaj(bar)           Fmin
--1---------1---------------------1------------|
----1---1-----1---1-----------1-----1---1--0---|
----------2---------2--0--0-----0--------------|
------3---------3-----------3---------3--------|
--3---------3----------3----------3------------|
-----------------------------------------------|

C                           (when repeating intro)
------------0-------------------0-|------------|
--1-----1-----1---1---1h3---3-----|----1-------|
----0-----0---------0---------0---|------0-----|
------2---------2---------2-------|--2---------|
--3---------3----------3--------3-|------------|
----------------------------------|------------|

if you're finishing the intro, let the final two notes
(before the intro repeat) ring before going into the chords.

intro (w/ electric guitar): C Am Fmaj Fmin C
verse: C Am Fmaj Fmin C
chorus: Fmaj G Am G Fmaj G ("soon you'll...") F C

go back to plucking the same thing as above when the "nah nah nah"'s come up.


-yajjii
Tap to rate this tab
 
# A B C D E F G H I J K L M N O P Q R S T U V W X Y Z