Song name
# A B C D E F G H I J K L M N O P Q R S T U V W X Y Z

Bob - Ill Be In The Sky tab

Voici la tablature de "I'll Be In The Sky" de B.O.B

La chanson repose sur trois principaux accords:

         Si Majeur  -->  Mi Majeur --> La Majeur

           e-2-                      e-0-                  e-0-|
           B-3-                      B-0-                  B-2-|
           G-4-                      G-1-                  G-2-|
           D-4-                      D-2-                  D-2-|
           A-2-                      A-2-                  A-0-|
           E-0-                      E-0-                  E-0-|

Sinon pour la tablature:

e---2-2-------------0-----0-0-----------2---------/
B---3-3-------------0-----2-2-------------5-3-5---/
G---4-4-------------1-----2-2-------------------4-/
D-4-4-4------2-4-2--2---2-2-2-------2-4-----------/
A---2-2--2-5--------2-----0-0---2-5---------------/
E-------------------0----- 0-0--------------------/

e---2-----0-----0-----------2---------/
B---3-----0-----2-------------5-3-5---/
G---4-----1-----2-------------------4-/
D-4-4---2-2---2-2-------2-4-----------/
A---2-----2-----0---2-5---------------/
E---------0---------------------------/

Apres c'est le couplet (aussi refrain) => rythmique avec les accords suivant:

   Si Majeur --> Mi Majeur --> La Majeur
Tap to rate this tab
 
# A B C D E F G H I J K L M N O P Q R S T U V W X Y Z