Song name
# A B C D E F G H I J K L M N O P Q R S T U V W X Y Z

Bobaflex - Family tab

verse
e(-----------------------------------------)
b(-----------------------------------------)
g(-----------------------------------------)
d(----5----5----5----5----2----2----3----3-)
a(--3---33---32---22---20---00---0---------)
D(--------------------------------3---33---)

verse(lead)
e(--------------------------)
b(--------------------------)
g(--55-55-55-55-22-22-------)
d(--------------------33-33-)
a(--------------------------)
D(--------------------------)

pre/post chorus
e(-----------------------------)
b(-----------------------------)
g(-----------------------------)
d(--10--9---7-7777777777777777-)
a(--10--9---7-7777777777777777-)
D(--8---7---5-5555555555555555-)
            pm................
chorus
e(----------------------------------------------------------)
b(----------------------------------------------------------)
g(----------------------------------------------------------)
d(--1010-101010-101010-101010-99-999-999-999-77-777-777-777-)
a(--8-8--8-8-8--8-8-8--8-8-8--77-777-777-777-99-999-999-999-)
D(----------------------------------------------------------)
              pm. . .  . . .         ... ...        ... ...
solo
e(--------------------------------------------)
b(--------------------------------------------)
g(-----9h10-12-10-9-9h10p9/7-7/10-975-5-54-47-)
d(--10----------------------------------------)
a(--------------------------------------------)
D(--------------------------------------------)
Tap to rate this tab
 
# A B C D E F G H I J K L M N O P Q R S T U V W X Y Z