Song name
# A B C D E F G H I J K L M N O P Q R S T U V W X Y Z

Bobby Bare Jr - The Terrible Sunrise tab

   The Terrible Sunrise - Bobby Bare Jr.
----------------------------------------------------------------------------
Tabbed by: XxDnGxX
Email:

Tuning: Whole step down

e|------------0-----------------------------2-------------------------0------|
B|-----------------0--------0--------------------4-----0----------------2----|
G|---------------------------------------------------------------------------|
D|----------------------2----------------------------4--------------------2--|
A|---------2----------------------------------------------------0-0----------|
E|------0----------------------------2-2-------------------------------------|

e|-0-----0------------------------------------------------------------------|
B|---2-----2-----0----------------------------------------------------------|
G|--------------------------------------------------------------------------|
D|-----2------2-------------------------------------------------------------|
A|--------------------------------------------------------------------------|
E|--------------------------------------------------------------------------|

This just repeats through the rest of the song.
Tap to rate this tab
# A B C D E F G H I J K L M N O P Q R S T U V W X Y Z