Bobby Bare - Are You Sincere tab

-------------------------------------------------------------------------------
			     ARE YOU SINCERE - Bobby Bare
                                 GUITAR INTRO 
-------------------------------------------------------------------------------
Tabbed by:chris
Email:chris@chrishickok.com	

Tuning: STD


e|-------------------------------------------------------------------|
B|-------------------------------------------------------------------|
G|-------------------------------------------------------------------|
D|-------------0--3----3--5--6-----6--6--5--3------------------------|
A|----1-----3----------------------------------6---------------------|
E|-------------------------------------------------------------------|

e|-------------------------------------------------------------------|
B|-------------------------------------------------------------------|
G|-------------------------------------------------------------------|
D|------3--4----4--3------------------3------------------------------|
A|---6----------------6--6---5-----6-----6--5------------------------|
E|-------------------------------------------------------------------|

e|----------------------------------------------------------------|
B|----------------------------------------------------------------|
G|----------------------------------------------------------------|
D|----------------------------------------------------------------|
A|--5--6--5--3----3--5--3--1--------------------------------------|
E|----------------------------------------------------------------|


     FROM THE VIDEO ARE YOU SINCERE, BY BOBBY BARE
 
        

===============================================================================
Tap to rate this tab
 
# A B C D E F G H I J K L M N O P Q R S T U V W X Y Z