Bobby Bare - 500 Miles Miles Away From Home tab

Hey Guys! This is my own version. Its not the original but it suits me well! Enjoy :D

E|0-0-4--4-2-0--4-2-0-2-4-2-0---0-0-2-4-7-0-------0-0| 
B|----------------------------2-----------2--0--2----|
G|---------------------------------------------------|
D|---------------------------------------------------|
A|---------------------------------------------------|
E|---------------------------------------------------|

E|0-0-4--2-0-2--4-0-2-4-2-0---0-0-2-4-2-0---------0-0|\  
B|--------------------------2-------------2--0--2----| \ 
G|---------------------------------------------------|  \ Repeat x2
D|---------------------------------------------------|  / Repeat x2
A|---------------------------------------------------| /
E|---------------------------------------------------|/  

It's pretty easy. :) Again-Enjoy!
Tap to rate this tab
 
# A B C D E F G H I J K L M N O P Q R S T U V W X Y Z