Song name
# A B C D E F G H I J K L M N O P Q R S T U V W X Y Z

Bobby Doran - Secret tab

----------------------------------------------------------------------------
			     SECRET - Greeley Estates
----------------------------------------------------------------------------
Tabbed by: Kjoya4 / Kelly :]

Tuning: cgcfad (Drop C tuning)

One of my favorite songs.
I'm almost 100% certain that this is how it's played.

NOTE: During the chorus, strumming isn't shown exactly, 
but it's easy enough to follow along with the song.

INTRO
d|------------------------------------------------------------|
a|------------------------------------------------------------|
f|-----0------0----------------0------0-----------------------|
c|-----10-----10---------------10-----10----------------------|
g|-0-0-0--0-0-0--77788877--0-0-0--0-0-0--777------------------|
c|------------------------------------------10-10-10-9h10-----|

d|------------------------------------------------------------|
a|-----------------------------------------0------------------|
f|-----0------0----------------0------0----0------------------|
c|-----10-----10---------------10-----10---10-----------------|
g|-0-0-0--0-0-0--77788877--0-0-0--0-0-0----0------------------|
c|-----------------------------------------0------------------|

VERSE
d|-------------------------------------------------------------------|
a|---------------0---------------0---------------0---------(12)------|
f|-----------------0-------------------------------0-----------------|
c|----10------10--------10------10-----10-------10-------10----------|
g|--0---0-7/8----------0---0-7/8------0---0-7/8---------0---0--------|
c|-0------------------0--------------0-----------------0-------------|
   "For   the   first   time, I   saw   inside   of    you"

d|--------------------------------------------------------------------------|
a|---------------0-----------------0----------------0-----------------------|
f|---(12)---------0----(12)-------------(12)---------0----(12)--------------|
c|------------10----------------10---------------10-------------------------|2x
g|--0----0-7/8--------0----0-7/8-------0----0-7/8--------0------------------|
c|-0-----------------0----------------0-----------------0------10-10-9h10---|
  "And   somewhere   within   you,  lies   the   whole   truth
       It's   time,   to   let   go,     to     let     go"


CHORUS
d|----------------------------------------------|
a|----------------------------------------------|
f|----------5-54-74-------------------555-------|
c|-7-77-77--5-55-55-7-77-77--3-33-33--555-------|
g|-7-77-77--3-33-33-7-77-77--3-33-33--333-------|
c|-7-77-77----------7-77-77--3-33-33------------|
 "Your secret is safe with me,Cause my lips are sealed"


d|-------------------------------------------|
a|-------------------------------------------|
f|----------5-54-74--------------------------|
c|-7-77-77--5-55-55-7-77-77--5-55-55---------|
g|-7-77-77--3-33-33-7-77-77--5-55-55---------|
c|-7-77-77----------7-77-77--5-55-55---------|
 "Far from the lies they told to you"

VERSE
d|-------------------------------------------------------------------|
a|---------------0---------------0---------------0---------(12)------|
f|-----------------0-------------------------------0-----------------|
c|----10------10--------10------10-----10-------10-------10----------|
g|--0---0-7/8----------0---0-7/8------0---0-7/8---------0---0--------|
c|-0------------------0--------------0-----------------0-------------|
    "For   all   the    times   when   you  felt  abandoned"


d|--------------------------------------------------------------------------|
a|---------------0-----------------0----------------0-----------------------|
f|---(12)---------0----(12)-------------(12)---------0----(12)--------------|
c|------------10----------------10---------------10-------------------------|2x
g|--0----0-7/8--------0----0-7/8-------0----0-7/8--------0------------------|
c|-0-----------------0----------------0-----------------0------10-10-9h10---|
   "I   want   you   to   know   that   you're    not    alone
     And   now   this   weight   has  been  lifted  from  you"



CHORUS
d|----------------------------------------------|
a|----------------------------------------------|
f|----------5-54-74-------------------555-------|
c|-7-77-77--5-55-55-7-77-77--3-33-33--555-------|
g|-7-77-77--3-33-33-7-77-77--3-33-33--333-------|
c|-7-77-77----------7-77-77--3-33-33------------|
"Your secret is safe with me Cause my lips are sealed"

d|-------------------------------------------|
a|-------------------------------------------|
f|----------5-54-74--------------------------|
c|-7-77-77--5-55-55-7-77-77--5-55-55---------|
g|-7-77-77--3-33-33-7-77-77--5-55-55---------|
c|-7-77-77----------7-77-77--5-55-55---------|
  "Far from the lies they told to you"

d|----------------------------------------------|
a|----------------------------------------------|
f|----------5-54-74-------------------555-------|
c|-7-77-77--5-55-55-7-77-77--3-33-33--555-------|
g|-7-77-77--3-33-33-7-77-77--3-33-33--333-------|
c|-7-77-77----------7-77-77--3-33-33------------|
  "And now that you let me in In on your secret"

d|------------------------------------------|
a|------------------------------------------|
f|----------5-54-74-------------------------|
c|-7-77-77--5-55-55-7-77-77---88888888------|
g|-7-77-77--3-33-33-7-77-77---88888888------|
c|-7-77-77----------7-77-77---88888888------|
"The sound of silence will soon fade away,you're not alone"


BREAKDOWN

d|--------------------------------------------------------------------------|
a|------0-------0---------0-------0---------0-------0---------0-------0-----|
f|----5---5---5---5-----5---5---5---5-----5---5---5---5-----5---5---5---5---|
c|--7-------7---------5-------5---------3-------3---------2-------0---------|3X
g|--------------------------------------------------------------------------|
c|--------------------------------------------------------------------------|

d|-------------------------------------------------------------------------|
a|------0-------0---------0-------0---------0-------0---------0------------|
f|----5---5---5---5-----5---5---5---5-----5---5---5---5-----5---5----------|
c|--7-------7---------5-------5---------3-------3---------2--------55555---|
g|-----------------------------------------------------------------55555---|
c|-----------------------------------------------------------------55555---|


AND THEN...


d|------------------------------------------(12)------------|
a|------------------------------------------(12)------------|
f|-----0------0----------------0------0---------------------|
c|-----10-----10---------------10-----10--------------------|
g|-0-0-0--0-0-0--77788877--0-0-0--0-0-0---------------------|
c|----------------------------------------------------------|


CHORUS
d|----------------------------------------------|
a|----------------------------------------------|
f|----------5-54-74-------------------555-------|
c|-7-77-77--5-55-55-7-77-77--3-33-33--555-------|
g|-7-77-77--3-33-33-7-77-77--3-33-33--333-------|
c|-7-77-77----------7-77-77--3-33-33------------|
"Your secret is safe with me Cause my lips are sealed"

d|-------------------------------------------|
a|-------------------------------------------|
f|----------5-54-74--------------------------|
c|-7-77-77--5-55-55-7-77-77--5-55-55---------|
g|-7-77-77--3-33-33-7-77-77--5-55-55---------|
c|-7-77-77----------7-77-77--5-55-55---------|
  "Far from the lies they told to you"

d|----------------------------------------------|
a|----------------------------------------------|
f|----------5-54-74-------------------555-------|
c|-7-77-77--5-55-55-7-77-77--3-33-33--555-------|
g|-7-77-77--3-33-33-7-77-77--3-33-33--333-------|
c|-7-77-77----------7-77-77--3-33-33------------|
  "And now that you let me in, In on your secret"

d|------------------------------------------|
a|------------------------------------------|
f|----------5-54-74-------------------------|
c|-7-77-77--5-55-55-7-77-77---88888888------|
g|-7-77-77--3-33-33-7-77-77---88888888------|
c|-7-77-77----------7-77-77---88888888------|
"The sound of silence will soon fade away,you're not alone"


VERSE slowing down
d|--------------------------------------------------------------7-----|
a|---------------0----------------0----------------0------------7-----|
f|-----------------0---------------------------------0----------7-----|
c|----10------10--------10------10-----10-------10-------10-----10----|
g|--0---0-7/8----------0---0-7/8------0---0-7/8---------0---0---7-----|
c|-0------------------0--------------0-----------------0--------7-----|
   "For   the   first   time   i  saw  inside  of  you"


That's it! Hope you guys like it. Please rate and comment! :DD
Tap to rate this tab
# A B C D E F G H I J K L M N O P Q R S T U V W X Y Z