Song name
# A B C D E F G H I J K L M N O P Q R S T U V W X Y Z

Bobby Doran - Make The Circle Straight tab

Standard Tuning
4 chords the whole song


E--0----0----0----0----------------------------|
B--3----3----3----3----------------------------|
G--4----4----4----4----------------------------|
D--5----5----5----5----------------------------|
A--2----3----x----x----------------------------|
E--0---------3----2----------------------------|

E--0----0----0----0----------------------------|
B--3----3----3----3----------------------------|
G--4----4----4----4----------------------------|
D--5----5----5----5----------------------------|
A--2----3----x----x----------------------------|
E--0---------3----2----------------------------|
Tap to rate this tab
 
# A B C D E F G H I J K L M N O P Q R S T U V W X Y Z