Song name
# A B C D E F G H I J K L M N O P Q R S T U V W X Y Z

Bobby Doran - Lucky Acoustic tab

Standard Tuning
Capo on 4th fret

E-----------------0-----|
B--3----3----3----3-3-3-|
G--0----0----0----2-2-2-|
D--4----4----2----0-4-4-|
A--x----2----3----------|
E--3----0-------------2-|

E-----------------0-----|
B--3----3----3----3-3-3-|
G--0----0----0----2-2-2-|
D--4----4----2----0-4-4-|
A--x----2----3----------|
E--3----0-------------2-|

E-----------------0-----|
B--3----3----3----3-3-3-|
G--0----0----0----2-2-2-|
D--4----4----2----0-4-4-|
A--x----2----3----------|
E--3----0-------------2-|
Tap to rate this tab
# A B C D E F G H I J K L M N O P Q R S T U V W X Y Z