Song name
# A B C D E F G H I J K L M N O P Q R S T U V W X Y Z

Bobby Doran - 95 tab

Standard Tuning (capo 2)
*T = Thumb

INTRO & VERSE

E-10---------------)- (3x)
B-8----10---6----8-)
G-8----x----5----x-)
D-8----10---8----8-)
A-x----8----x----6-)
E-8---------6------)
  T         T

E-10--------3------(3--)
B-8----10---3------(3--)
G-8----x----0------(0--)
D-8----10---0------(0--)
A-x----8----x----------)
E-8---------3------(3--)
  T         T

CHORUS (2x)

E-3------3------3------2-|
B-3------3------3------3-|
G-0------0------0------2-|
D-0------x------2------0-|
A-x------3------2--------|
E-3-------------0--------|
  T

BRIDGE

E-10--------3------(3)-10------|
B-8----10---3------(3)-8----10-|
G-8----x----0------(0)-8----x--|
D-8----10---0------(0)-8----10-|
A-x----8----x----------x----8--|
E-8---------3------(3)-8-------|
  T         T          T

SOLO / CHORUS / FADE
Tap to rate this tab
# A B C D E F G H I J K L M N O P Q R S T U V W X Y Z