Song name
# A B C D E F G H I J K L M N O P Q R S T U V W X Y Z

Bobby Fuller Four - Let Her Dance tab

The Bobby Fuller Four
Let Her Dance

This is a rough outline of the guitar riffs and chords played in the song.  Guitar
2's part in the solo portion is played very faintly, in sync with Guitar 1's part.

(/) Slide Up

Intro/Chorus:
Guitar 1
E|------------------------------------------------|
B|------------------------------------------------|
G|------------------------------------------------|
D|----------------5-------------------------------|
A|-----------3\7-----5--5--5-------5--3--3--3-----|
E|--3--3--3-------------------3\7--------------5--|

Guitar 2
G C D G C

Verse:
Guitar 1
E|----------------------------------------------|
B|----------------------------------------------|
G|----------------------------------------------|
D|----------------------------------------5--7--|
A|----------------5--7--5----3--3--3--5\7-------|
E|--3--3--3--5\7--------------------------------|

Guitar 2
G C

Solo:
Guitar 1
E|--7-----------------5--------7--------------------|
B|-----------8--------------------------8-----------|
G|--------------------------------------------------|
D|--------------------------------------------------|
A|--------------------------------------------------|
E|--------------------------------------------------|

Guitar 2
E|--------------------------------------------------|
B|-----8--------5--------7--------8--------5-----5--|
G|--7-----7--5-----5--7-----7--7-----7--5-----5-----|
D|--------------------------------------------------|
A|--------------------------------------------------|
E|--------------------------------------------------|
Tap to rate this tab
 
# A B C D E F G H I J K L M N O P Q R S T U V W X Y Z