Song name
# A B C D E F G H I J K L M N O P Q R S T U V W X Y Z

Bobby Mcferrin - Dont Worry Be Happy tab

 #----------------------------------PLEASE NOTE--------------------------------#
#This file is the author's own work and represents their interpretation of the#
#song. You may only use this file for private study, scholarship, or research.#
#-----------------------------------------------------------------------------#
#-- File created with Instab - http://www.pconline.com/~smcarey/instab.html --#
#-----------------------------------------------------------------------------#
Author/Artist: Bobby McFerrin
Title: Don't Worry Be Happy
Transcribed by: Saverain
/ slide up
\ slide down
h hammer on
p pull off
Hint:  I wrote a little extra part for the song, mess around
with the chords to get unique sounds.

Standard Tuning

-----|-2-2--2-2--2-2--2-2-|-4-4--4-4--4-4--4-4-|--|-2-2--2-2--2-2--2-2-|------|
-----|-4-4--4-4--4-4--4-4-|-5-5--5-5--5-5--5-5-|--|-4-4--4-4--4-4--4-4-|------|
-----|--------------------|--------------------|--|--------------------|------|
-----|--------------------|--------------------|2x|--------------------|------|
-----|--------------------|--------------------|--|--------------------|------|
-----|--------------------|--------------------|--|--------------------|------|
      Verse/ Chorus Palm Mute All (Can play these. 244, 456, 454, 244instead)

--/--|-7--------------------------7---------------7-----------------|---------|
--\--|----9--7--9-7----9-7----7-9---9---9-7---7-9---9---9-7---------|---------|
--\--|--------------8------8----------------8---------------8-6-4---|---------|
--/--|--------------------------------------------------------------|---------|
--\--|--------------------------------------------------------------|---------|
--/--|--------------------------------------------------------------|---------|
    Extra stuff to play  (Whistling)

-----|-7-----------------7---7-9-11-9----14-11-9-7-9-11-9----11-9-7-----------|
-----|----9--7--9-7----9---9----------------------------------------7---------|
-----|--------------8-------------------------------------------------4---4h6-|
-----|------------------------------------------------------------------------|
-----|------------------------------------------------------------------------|
-----|------------------------------------------------------------------------|
     Chorus Part w/ little solo      "Don't Worry"      "Be Happy"    "Don't

-----------7h9---19---|-------------------------------------------------------|
-----7h8h9------------|-------------------------------------------------------|
-7/8------------------|-------------------------------------------------------|
----------------------|-------------------------------------------------------|
----------------------|-------------------------------------------------------|
----------------------|-------------------------------------------------------|
Worry Be Happy"

-----|-7----9----------7----|-------------\-----------------------------------|
-----|-7----9-----9----7----|-------------/-----------------------------------|
-----|-8----9-----9----8----|-------------\-----------------------------------|
-----|-9----11----9----9----|-------------/-----------------------------------|
-----|-9----11----11---9----|-------------\-----------------------------------|
-----|-7----9-----0----7----|-------------/-----------------------------------|
    Another way to play the chords
Tap to rate this tab
# A B C D E F G H I J K L M N O P Q R S T U V W X Y Z