Guitaretab - guitar tabs
Song name
# A B C D E F G H I J K L M N O P Q R S T U V W X Y Z

Bobby Soxx - Scavenger Of Death tab

riff one-

e-------------------------|
b-------------------------|
g-------------------------|
d-----4-3-----------------|
a-4-4-2-1---2-2-2-2-2-3-3-|
e-2-2-------0-0-0-0-0-1-1-|
[ Tab from: http://www.guitaretab.com/b/bobby-soxx/80923.html ]
and riff two-

e------------------------|
b------------------------|
g------------------------|
d----2-1-----------------|
a-2-2----0-0-0-0-1-1-1---|
e------------------------|

simple as that.