Song name
# A B C D E F G H I J K L M N O P Q R S T U V W X Y Z

Bobnoxious - Down tab

-------------------------------------------------------------------------------
			     Down - Bobnoxious
-------------------------------------------------------------------------------
Tabbed by:
Email:                          This is the song Down by the London group Bobnoxious

Tuning: Eb Ab Db Gb Bb eb
 Intro:                Verse:
eb|-----------------#-------------------------------------|
Bb|------9---9--------#-----------------------------------|
Gb|-8-8--9~--9~-----#------8-8--9---8-8--9---8-8---9~-9~--|
Db|-8-8--9~--9~--X7-#------8-8--9---8-8--9---8-8---9~-9~--|
Ab|-6-6--7~--7~-----#------6-6--7---6-6--7---6-6---7~-7~--|
Eb|-0-0--0---0------#------0-0--0---0-0--0---0-0---0--0---|
   Chorus:  There are two guitar parts here. The first guitar plays some chords while 
2 plays an open Eb string and lowers it's pith use a tremelo bar.                       
1
eb|-----------------------------#------------------------------|
Bb|-----------------------------#------------------------------|
Gb|-----------------------------#---8-8---9~----9~-------------|
Db|-----------------------------#---8-8---9~----9~-x2--REPEAT--|
Ab|---5---4---3---4---4/-5-6-5--#---6-6---7~----7~-------------|
Eb|---7---6---5---2---2/-3-4-7--#---0-0---0-----0--------------|
      *   *   *   *                  Guitar 2
eb|-----------#-----------------------------|
Bb|-----------#-----------------------------|
Gb|-----------#-8-8---9~--9~----------------|
Db|---------/-#-8-8---9~--9~--X2---REAPEAT--|
Ab|--------/--#-6-6---7~--7~----------------|
Eb|--0\---/---#-0-0---0---0-----------------|
       \ /      Verse2:
e|------------------------------------|
B|------------------------------------|
G|--8--8--9---8--8--9---8/---9~---9~--|
D|--8--8--9---8--8--9---8/---9~---9~--|
A|--6--6--7---6--6--7---6/---7~---7~--|
E|--0--0--0---0--0--0---0----0----0---|
                Chorus2:
e|-----------------------#--------------------------------|
B|-----------------------#--------------------------------|
G|-----------------------#--8--8---9~---9~----------------|
D|-----------------------#--8--8---9~---9~---X2---REPEAT--|
A|--7--6--5--4/---5-6-7--#--6--6---7~---7~----------------|
E|--5--4--3--2/---3-4-5--#--0--0---0----0-----------------|

e|------------#--------------------------------|
B|------------#--------------------------------|
G|------------#---8-8---9~---9~----------------|
D|------------#---8-8---9~---9~---X2---REPEAT--|
A|---------/--#---6-6---7~---7~----------------|
E|--0\----/---#---0-0---0----0-----------------|
      \  /
e|-----\------------------------|
B|------------------------------|
G|---8--8----9~---9~------------|
D|---8--8----9~---9~----REPEAT--|
A|---6--6----7~---7~------------|
E|---0--0----0----0-------------|
                         Repeat this part to the end
e|---------------------------------------------------------------------------|
B|---------------------------------------------------------------------------|
G|---------------------------------------------------------------------------|
D|---------------------------------------------------------------------------|
A|---------------------------------------------------------------------------|
E|---------------------------------------------------------------------------|

                                ENJOY  :)
| /  slide up
| \  slide down
| h  hammer-on
| p  pull-off
| ~  vibrato
| +  harmonic
| x  Mute note
===============================================================================
Tap to rate this tab
# A B C D E F G H I J K L M N O P Q R S T U V W X Y Z