Song name
# A B C D E F G H I J K L M N O P Q R S T U V W X Y Z

Bobnoxious - Id Never Say tab

Tuned half step down.



E |----------2---------------5---------------3---------------2--------|
B |------3-----3---------2-----2---------0-----2---------3-----3------|
G |----2---2-----2---------2-----2---------0-----0-----2---2-----2----|
D |--0-------------0---2-----------2---------------0-0-------------0--|
A |------------------0-----------------2------------------------------|
E |----------------------------------3--------------------------------|

          I told you that I loved you, That was just the booze talking

E |----------2---------------5---------------3--------|
B |------3-----3---------2-----2---------0-----2------|
G |----2---2-----2---------2-----2---------0-----0----|
D |--0-------------0---2-----------2---------------0--|
A |------------------0-----------------2--------------|
E |----------------------------------3----------------|

          I'd never say a stupid thing like that

E |----------2---------------5---------------3---------------2--------|
B |------3-----3---------2-----2---------0-----2---------3-----3------|
G |----2---2-----2---------2-----2---------0-----0-----2---2-----2----|
D |--0-------------0---2-----------2---------------0-0-------------0--|
A |------------------0-----------------2------------------------------|
E |----------------------------------3--------------------------------|

          I told you that I want you, That was just my big stiff calling

E |----------2---------------5---------------3--------|
B |------3-----3---------2-----2---------0-----2------|
G |----2---2-----2---------2-----2---------0-----0----|
D |--0-------------0---2-----------2---------------0--|
A |------------------0-----------------2--------------|
E |----------------------------------3----------------|

          I'd never say a stupid thing like that

E |----------2---------------5---------------3---------------2--------|
B |------3-----3---------2-----2---------0-----2---------3-----3------|
G |----2---2-----2---------2-----2---------0-----0-----2---2-----2----|
D |--0-------------0---2-----------2---------------0-0-------------0--|
A |------------------0-----------------2------------------------------|
E |----------------------------------3--------------------------------|

          I told you I respect you, That was just the drugs working

E |----------2---------------5---------------3--------|
B |------3-----3---------2-----2---------0-----2------|
G |----2---2-----2---------2-----2---------0-----0----|
D |--0-------------0---2-----------2---------------0--|
A |------------------0-----------------2--------------|
E |----------------------------------3----------------|

          I'd never say a stupid thing like that
Tap to rate this tab
 
# A B C D E F G H I J K L M N O P Q R S T U V W X Y Z