Song name
# A B C D E F G H I J K L M N O P Q R S T U V W X Y Z

Boduf Songs - Grains tab

Arist: Boduf Songs (www.kranky.net/artists/bodufsongs.html)
Track: Grains
Album: Boduf Songs
Tabber: Andrew Biles

This album really had to be one of the best of 2005.  I don't know why it has taken me 
long to sit down and start working out some of the tracks from it.
'Grains' is quite a simple track, and there's not a ton to it, so you've just got to 
sure you keep the rhythm going with your picking fingers.

The guitar is in standard tuning but with a Capo on fret 3, all of the tab is in 
to the capo (so 0 = fret 3 on your guitar).

|-----------------------------------------------|
|---------0-----------------------0-------------|
|----2----------2-----2-----2-----------2-----2-|
|-------2----------2-----------2-----------2----|
|-0----------0-----------0-----------0----------|
|-----------------------------------------------| x4


|-----------------------------------------------------------------|
|-------0---------------0---------------0---------------0---------|
|---2-------2---2---2-------2---2---0-------0---0---0-------0---0-|
|-----2-------2-------2-------2-------2-------2-------2-------2---|
|-0-------0-------0-------0-------3-------3-------3-------3-------|
|-----------------------------------------------------------------|

-----------------------------------------------------------------|
-------0-------------------------------0---------------0---------|
---2-------2---2---2---2---2---2---2-------2---2---2-------2---2-|
-----4-------4-------4-------4-------2-------2-------2-------2---|
-5-------5-------5-------5-------0-------0-------0-------0-------|
-----------------------------------------------------------------|

At points you have to add in a few extra rounds of the Asus2 (x,0,2,2,0,0), and then end 
the plucking of an open A note.
That is all.
Tap to rate this tab
 
# A B C D E F G H I J K L M N O P Q R S T U V W X Y Z