Song name
# A B C D E F G H I J K L M N O P Q R S T U V W X Y Z

Body Count - Body Count tab

ok here is body counts body count really cool song tell me what you think


intro

e-7---7--7-7-5---5--5-7---7--7-5---5--5-|
b----7--7------5---5----7---7----5---5--|
g---7--7------5-5-5----7-7-7----5-5-5---|
d-9--------9-7------7-9------9-7------7-|
a---------------------------------------|
e---------------------------------------|
Shit aint like that

kickass riff
e--------------------------------------|
b--------------------------------------|
g--------------------------------------|
d-14/-----7-----9----10-----9-----7-5--|
a-12/-5-5---5-5---5-5---5-5---5-5------|
e--------------------------------------|


verse riff


e--------------------------------------|
b--------------------------------------|
g--------------------------------------|
d--7-7-7-9-7---------------------------|
a--5-5-5-5-5---------------------------|
e--------------------------------------|
Tap to rate this tab
# A B C D E F G H I J K L M N O P Q R S T U V W X Y Z