Song name
# A B C D E F G H I J K L M N O P Q R S T U V W X Y Z

Body Count - Dead Man Walking tab

Body Count
Dead Man Walking

Eb Tuning


Intro Riff

e|--------------------------------------------------|
B|--------------------------------------------------|
G|-4----4---4-----7/9-------------------------------|
D|-4-5--4-3-4-5/7-7/9-8-----------------------------|
A|-2-5--2-3-2-5/7-5/7-8-----------------------------|
E|---3----1---3/5-----6-----------------------------|



Verse Riff 1

e|--------------------------------------------------|
B|--------------------------------------------------|
G|--------------------------------------------------|
D|-2-22222222---------------------------------------|
A|-2-22222222-5h7-----------------------------------|
E|-0-00000000-----6b/-------------------------------|
pm   xxxxxxxx    



Verse Riff 2

e|--------------------------------------------------|
B|--------------------------------------------------|
G|-------------5\-----------------------------------|
D|-2-----3-----5\-----------------------------------|
A|-2-----3-----5\-5h7-------------------------------|
E|-0-000-1-000-3\-----6b/---------------------------|
pm   xxx             


Verse Riff 3
e|--------------------------------------------------|
B|--------------------------------------------------|
G|-2-----4/5--------------/77-----------------------|
D|-2-----4/5(slight pause)/77-----------------------|
A|-0000002/3--------------/55-----------------------|
E|--------------------------------------------------|
pm  xxxxx

Repeat verse riff 1


Chorus Riff
e|--------------------------------------------------|
B|--------------------------------------------------|
G|--------------------------------------------------|
D|-9-------9-8-7-5-------/8--------5--2-------------|
A|-9-(hold)9-8-7-5-(hold)/8-(hold)-5--2-------------| 
E|-7-------7-6-5-3-------/6--------3--0-------------|

   Pick Scrape up the neck after the chorus 



Order
Intro Riff x4
Verse Riff 1 x4
Verse Riff 2 x4
Verse Riff 3 x4
Verse Riff 1 x4
Chorus Riff  x2
Repeat all once
Intro Riff x 4
Verse Riff 1 x8
Verse riff 3 x4
Verse Riff 1 x4
Chorus Riff  x4
Tap to rate this tab
# A B C D E F G H I J K L M N O P Q R S T U V W X Y Z