Song name
# A B C D E F G H I J K L M N O P Q R S T U V W X Y Z

Body Count - I Used To Love Her tab

Body Count
I Used To Love Her

Eb Tuning


Main Riff
e|--------------------------------------------------|
B|--------------------------------------------------|
G|-5\4----------------------------------------------|
D|-5\4--5\4--4--5--7--------------------------------|
A|-3\2--5\4--4--5--7--------------------------------|
E|----003\2002003005--------------------------------|
      xx   xx xx xx

Fill In Before verse
e|--------------------------------------------------|
B|--------------------------------------------------|
G|---5\4--------------------------------------------|
D|---5\4--------------------------------------------|
A|---3\2--------------------------------------------|
E|-00-----------------------------------------------|
   xx

Chorus ("she did me wrong")
e|--------------------------------------------------|
B|--------------------------------------------------|
G|--------2-----------------------------------------|
D|-4------2-(x8)-4------5---------------------------|
A|-4-(x8)-0------4-(x8)-5-(x8)----------------------|
E|-2-------------2------3---------------------------|
Tap to rate this tab
 
# A B C D E F G H I J K L M N O P Q R S T U V W X Y Z