Song name
# A B C D E F G H I J K L M N O P Q R S T U V W X Y Z

Body Count - Body M F Count tab

Body Count
Body MF Count


Eb Tuning



Main Riff
e|--------------------------------------------------|
B|--------------------------------------------------|
G|--------------------------------------------------|
D|--------------------------------------------------|
A|--------52-52-52--5-------------------------------|
E|-000000-30-30-30--3-------------------------------|
   xxxxx

Chorus Riff
e|--------------------------------------------------|
B|--------------------------------------------------|
G|--------------------------------------------------|
D|----------------------5---------------------------|
A|-2-5-4/5-4/5--2-5-4/5-3-5-------------------------|
E|-0-3-2/3-2/3--0-3-2/3---3-------------------------|

Chorus Riff 2
e|--------------------------------------------------|
B|--------------------------------------------------|
G|--------------------------------------------------|
D|---------------------------9----------------------|
A|-7-10-9/10-9/10--7-10-9/10-7-10-------------------|
E|-5-8--7/8--7/8---5-8--7/8----8--------------------|

That's it just listen to the song for the timing.
Tap to rate this tab
# A B C D E F G H I J K L M N O P Q R S T U V W X Y Z