Guitaretab - guitar tabs
Song name
# A B C D E F G H I J K L M N O P Q R S T U V W X Y Z

Body Count - Street Lobotomy tab

            BODY COUNT - STREET LOBOTOMY

            ALBUM - BORN DEAD 1994

            Tabbed by blinders

            Want more? http://perso.club-internet.fr/blinders/

            HE! It's all my work! Don't touch=20

INTRO

|--5-5-5-5-5-5--|
|---------------|
|---------------|
HS-------------|

RIFF1

|-----------------------------------------------------------|
|------7(hs)h8--------7(hs)h8--------7(hs)h8--------9/10/9--|
|-0000---------000000---------000000---------000000-7/8x/7--|
pm----|        pm----|        pm----|        pm----|    =20

RIFF2
[ Tab from: http://www.guitaretab.com/b/body-count/36353.html ]
|------------------------------7-----------------------------3--|
|------------------------------7-----------------------------3--|
|--0-0-0-0-3-0-0-0-2-0-0-0-3-0-5-0-0-0-0-3-0-0-0-2-0-0-0-3-0-1--|
   pm-----|  pm---|  pm---|      pm-----|  pm---|  pm---| =20

RIFF3
|--2------2------------2------2-------|            --2--
|--2--4b--2------------2--4b--2-hs----|   2x then  --2--
|--0------0-2h3p2h3h2--0------0-------|            --0--  =20


FINAL

|--2--|
|--2--|
|--0--|

STRUCTURE

=20

INTRO

RIFF1 4x

RIFF2 4x

RIFF3 1x

RIFF2 4x

RIFF3 1x

RIFF1 4x

RIFF2 4x

RIFF3 2x

FINAL
Related for Street Lobotomy tab
Advertisement will be closed in 10 seconds