Song name
# A B C D E F G H I J K L M N O P Q R S T U V W X Y Z

Body Count - Voodoo tab

Body Count-Voodoo
-----------------
                                End:
eb|----------------------------|----------|
Bb|----------------------------|----------|
Gb|----------------------------|----------|
Db|----------5-----------5-4-2-|--5-4-2---|
Ab|-4-444444-3--4-444444-3-2-0-|--3-2-0-4-|
Eb|-2-222222----2-222222-------|--------2-|




eb|--------------------------------|
Bb|--------------------------------|
Gb|--------------------------------|
Db|-------------5------------5-4-2-|
Ab|-4-4-4-4-4-4-3--4-4-4-4-4-3-2-0-|
Eb|-2-2-2-2-2-2----2-2-2-2-2-------|



eb|---------------------------|
Bb|---------------------------|
Gb|---------------------------|
Db|---5-4-2-5-4-2--5-4---7----|
Ab|---3-2-0-3-2-0--3-2-0-5----|
Eb|---------------------------|

eb|---------------------------|
Bb|---------------------------|
Gb|---------------------------|
Db|---5-4-2-5-4-2--5-4--------|
Ab|---3-2-0-3-2-0--3-2-0-5----|
Eb|----------------------3----|


eb|---------------|
Bb|---------------|
Gb|---------------|
Db|---------------|
Ab|--777-5--7-5---|
Eb|--555-3--5-3---|



eb|-------------------------------------|
Bb|-------------------------------------|
Gb|-------------------------------------|
Db|-------------2-4-2-------------------|
Ab|-44444444444-0-2-0-44444444444-2-4-2-|
Eb|-22222222222-------22222222222-0-2-0-|



eb|----------------------|
Bb|----------------------|
Gb|----------------------|
Db|-----------2-4-2------|
Ab|-2-4---4-4-0-2-0--4-4-|
Eb|-0-2-0-2-2--------2-2-|


Solo:

eb|--/14-13-14p13-------------------------------------|
Bb|---------------14----------------------------------|
Gb|-------------------16-14-16-14-13----------14------|
Db|----------------------------------16-14-16----16~~-|
Ab|---------------------------------------------------|
Eb|---------------------------------------------------|


eb|---------14-16-17p16-14h16p14-1313-----------------------------------------|
Bb|-----------------------------------14--------------------------------------|
Gb|--14/-\--------------------------------13h14p13-13----------------14-------|
Db|---------------------------------------------------16-16-16-14-16----16~~--|
Ab|---------------------------------------------------------------------------|
Eb|---------------------------------------------------------------------------|

eb|--14-16-17-14-16---14-16p14-16p14-14-14-13tr14---14-17-16-14-17b19~-----------|
Bb|------------------------------------------------------------------------------|
Gb|------------------------------------------------------------------------------|
Db|------------------------------------------------------------------------------|
Ab|------------------------------------------------------------------------------|
Eb|------------------------------------------------------------------------------|
Tap to rate this tab
# A B C D E F G H I J K L M N O P Q R S T U V W X Y Z